Misc Unsigned Bands Tabs

Joseph Vincent - If You Stay

1 versions

TAB

            -----------------------------------------------------------------------------
			     IF YOU STAY - Joseph Vincent
-----------------------------------------------------------------------------
Tabbed by: yinlingk
Email: akyl_2004@hotmail.com

Tuning: Standard


Main Riff (Intro/Verse/Chorus/Interlude)

    Ab            Cm            Db            Eb
e|----4--4--4--4----3--3--3--3----4--4--4--4----6--6--6--6---|
B|----4--4--4--4----4--4--4--4----6--6--6--6----8--8--8--8---|
G|-----------------------------------------------------------|
D|-----------------------------------------------------------|
A|----------------3-------------4-------------6--------------|
E|--4--------------------------------------------------------|


Pre-Chorus
    Cm      Db      Eb            Cm      Db      Eb
e|----3--3----4--4----6--6--6--6----3--3----4--4--6~---------|
B|----4--4----6--6----8--8--8--8----4--4----6--6--8~---------|
G|-----------------------------------------------------------|
D|-----------------------------------------------------------|
A|--3-------4-------6-------------3-------4-------6~---------|
E|-----------------------------------------------------------|


Bridge
    Cm            Db            Ab            Eb
e|----3--3--3--3----4--4--4--4----4--4--4--4----6--6--6--6---|
B|----4--4--4--4----6--6--6--6----4--4--4--4----8--8--8--8---|
G|-----------------------------------------------------------|
D|-----------------------------------------------------------|
A|--3-------------4---------------------------6--------------|
E|------------------------------4----------------------------|    

Added On December 16th, 2013

SHARE

Comments

blog comments powered by Disqus

ADVERTISEMENT