Misc Unsigned Bands Tabs

Kaoma - Lambada

2 versions

TAB

            |-7--5----|-0320-0--|---------|-7--5----|
|-----875-|-----3-0-|0--------|-----875-|
|---------|--------2|---------|---------|
|---------|---------|---------|---------|
|---------|---------|---------|---------|
|---------|---------|---------|---------|


|-0320-0--|---------|-5-5---0-|-7-5---0-|
|-----3-0-|0--------|----8---8|----8---8|
|--------2|---------|-----5---|-----5---|
|---------|---------|---------|---------|
|---------|---------|---------|---------|
|---------|---------|---------|---------|


|---------|---------|-5-5---0-|-7-5---0-|
|75-----5-|5--------|----8---8|----8---8|
|--7--77-7|---------|-----5---|-----5---|
|---------|---------|---------|---------|
|---------|---------|---------|---------|
|---------|---------|---------|---------|


|---------|---------|-7--5----|-0320-0--|
|75-----5-|875------|-----875-|-----3-0-|
|--7--77-7|---------|---------|--------2|
|---------|---------|---------|---------|
|---------|---------|---------|---------|
|---------|---------|---------|---------|


|---------|---------|
|---------|---------|
|0--------|---------|
|---------|---------|
|---------|---------|
|---------|---------|    

Added On December 16th, 2013

SHARE

Comments

blog comments powered by Disqus

VERSIONS

ADVERTISEMENT