Misc Unsigned Bands Tabs

Kedollasha - Disillusioned

1 versions

TAB

            Kedollasha 
Disillusioned


Intro/Verse:
e|---------0--------------0--------------0---------------0-----------------|
B|------3----3---3-----3----3---------3----3---3-----3-----3---------------|
G|----4--4-----4-----4--4-----------4--4-----4-----4---4-------------------|
D|-------------------------------------------------------------------------|
A|-2---------------2----------2-0------------------------------0-2---------|
E|--------------------------------3--------------3-----------3-------------|
                                     [Repeated as neccesary]

Build Up:
e|-------------------------------------------------------------------------|
B|-------------------------------------------------------------------------|
G|-------------------------------------------------------------------------|
D|-5-5-5-5-5-5-5-5-7-7-7-7-7-7-7-7-----------------------------------------|
A|-5-5-5-5-5-5-5-5-7-7-7-7-7-7-7-7---------[palm muted]--------------------|
E|-3-3-3-3-3-3-3-3-5-5-5-5-5-5-5-5-----------------------------------------|

Chorus:
e|-------------------------------------------------------------------------|
B|-------------------------------------------------------------------------|
G|-4------4------4---2-----------------------------------------------------|
D|-4------4------4---2---5------7------------------------------------------|
A|-2------2------2---0---5------7------------------------------------------|
E|-----------------------3------5------------------------------------------|
                                      

Solo 1:
e|-------------------------------------------------------------------------|
B|-------------------------------------------------------------------------|
G|-----------------------------------------------------------7^------------|
D|-9-/-12\11--7/9-2/4-2-0--9--14-14-/-16-16-\-12-12-11-11-9-9----9-7-9-----|
A|-------------------------------------------------------------------------|
E|-------------------------------------------------------------------------|

Solo 2:
e|-------------------------------------------------------------------------|
B|-7^-------------------7^-------------------------------------------------|
G|-7^-----------7h9p7---7^-----------7h9p7---------------------------------|
D|----9p7h9-x-x-------9----9p7h9-x-x------------------------7^----7-8------|
A|----------------------------------------9/10-9-10--9/10-9----9-----------|
E|-------------------------------------------------------------------------|

e|-------------------------------7-10p7----7-------------------------------|
B|-7^---------------------10-10^--------10---10p7-10p7---7-----------------|
G|-7^-----------9^p7-9^p7------------------------------9---9p7-9p7---7^----|
D|----9p7h9-x-x------------------------------------------------------------|
A|-------------------------------------------------------------------------|
E|-------------------------------------------------------------------------|

e|--------------------------|
B|--------------------------|
G|--------------------------|
D|-9p7---7-9-9--------------|
A|-----9--------------------|
E|--------------------------|

Structure:

Intro
Verse
Build Up
Chorus x1
Verse
Build up
Chorus x2
Solo 1 (w/Chorus Chords underneath)
Verse
Build Up
Chorus x2
Solo 2 (w/Chorus Chords underneath)
Chorus x4

Lyrics:

Take the pain away, 
Fill your eyes with memories, 
But please don’t worry, 
You’re always safe with me.

The bitter lies you told, 
The ones we swore we’d never tell, 
Deceit gets old, 
Don’t walk away from me.

WOAH...

Take all your pictures down and burn them coz I'd rather be without. 
I Seize the embers as the flame runs out.
I Smile when I think of you, 
Disillusioned with all you gave and tore away, 
You said you'd never wanna here me say, 
I love you but I cant stay.

I said id never walk away, 
But you left me with no way out, 
I pushed and I tried, but I cant, 
Re-light this flame while your heads filled with doubt. 

Smiles and memories
A long goodbye behind the scenes
Of faded dreams
But now I’m moving on to better things
I leave with lessons taught
Tear the pages of all we built and broke away
Watch the pictures as they softly fray
Forever they smear away!

I said id never walk away, 
But you left me with no way out, 
I pushed and I tried, but I cant, 
Re-light this flame while your heads filled with doubt. 

Take all your pictures
(All that you gave)
And burn them to the ground
Wasted away
(All that remains)
Disillusioned with all you gave
Don't talk to me of sadness
Pick up yourself and take the pain away. 

Legend:
| /  slide up
| \  slide down
| h  hammer-on
| p  pull-off
| ^  bend
| ~  vibrato
| +  harmonic
| x  Mute note    

Added On December 16th, 2013

SHARE

Comments

blog comments powered by Disqus

ADVERTISEMENT