Misc Unsigned Bands Tabs

Mike Dignam - Sunshine

1 versions

TAB

            Intro
e|--0--------------7--------------5-------------7-------------|
b|--0--------------7--------------5-------------7-------------|
G|--9--9-10-10-9---8--9-10-10-9---5--9-10-10-9--8--11-13-13---|
D|--9--9-10-10-9---9--9-10-10-9---7--9-10-10-9--9--11-13-13---|
A|-7---7/8--8-\7---9--7/8--8-\7---7--7/8--8-\7--9--9-/11-11-\9|
E|----------------7--------------5-------------7--------------|

When it's just a normal Major chord, play the barre chords.

Verse:
E5
E5
e |---|---|---|---|---|
B |---|---|---|---|---|
G |---|---|---|---|---|
D |---|-x-|---|---|---|
A |---|-x-|---|---|---|
E |---|---|---|---|---|
B
B
e |---|-x-|---|---|---|
B |---|---|---|-x-|---|
G |---|---|---|-x-|---|
D |---|---|---|-x-|---|
A |---|-x-|---|---|---|
E |---|-x-|---|---|---|
I find it hard to break out A
A
e |---|---|---|---|---|
B |---|-x-|---|---|---|
G |---|-x-|---|---|---|
D |---|-x-|---|---|---|
A |---|---|---|---|---|
E |---|---|---|---|---|
Releasing my mind from doubt I guess it stays this way B
B
e |---|-x-|---|---|---|
B |---|---|---|-x-|---|
G |---|---|---|-x-|---|
D |---|---|---|-x-|---|
A |---|-x-|---|---|---|
E |---|-x-|---|---|---|
When nothing changes for the better E5
E5
e |---|---|---|---|---|
B |---|---|---|---|---|
G |---|---|---|---|---|
D |---|-x-|---|---|---|
A |---|-x-|---|---|---|
E |---|---|---|---|---|
B
B
e |---|-x-|---|---|---|
B |---|---|---|-x-|---|
G |---|---|---|-x-|---|
D |---|---|---|-x-|---|
A |---|-x-|---|---|---|
E |---|-x-|---|---|---|
You find yourself in a rut A
A
e |---|---|---|---|---|
B |---|-x-|---|---|---|
G |---|-x-|---|---|---|
D |---|-x-|---|---|---|
A |---|---|---|---|---|
E |---|---|---|---|---|
You find it hard to get up I guess it's nothing new B
B
e |---|-x-|---|---|---|
B |---|---|---|-x-|---|
G |---|---|---|-x-|---|
D |---|---|---|-x-|---|
A |---|-x-|---|---|---|
E |---|-x-|---|---|---|
and it's Been this way forever Bridge: C#5
C#5
e |---|---|---|---|---|
B |---|---|---|---|---|
G |---|---|-x-|---|---|
D |---|---|-x-|---|---|
A |-x-|---|---|---|---|
E |---|---|---|---|---|
G#
G#
e |---|---|---|-x-|---|
B |-x-|---|---|---|---|
G |-x-|---|---|---|---|
D |-x-|---|---|---|---|
A |---|---|---|---|---|
E |---|---|---|---|---|
A
A
e |---|---|---|---|---|
B |---|-x-|---|---|---|
G |---|-x-|---|---|---|
D |---|-x-|---|---|---|
A |---|---|---|---|---|
E |---|---|---|---|---|
And I won't dwell on things C#5
C#5
e |---|---|---|---|---|
B |---|---|---|---|---|
G |---|---|-x-|---|---|
D |---|---|-x-|---|---|
A |-x-|---|---|---|---|
E |---|---|---|---|---|
G#
G#
e |---|---|---|-x-|---|
B |-x-|---|---|---|---|
G |-x-|---|---|---|---|
D |-x-|---|---|---|---|
A |---|---|---|---|---|
E |---|---|---|---|---|
F#
F#
e |---|-x-|---|---|---|
B |---|-x-|---|---|---|
G |---|---|-x-|---|---|
D |---|---|---|-x-|---|
A |---|---|---|-x-|---|
E |---|-x-|---|---|---|
I don't understand, that's not me B
B
e |---|-x-|---|---|---|
B |---|---|---|-x-|---|
G |---|---|---|-x-|---|
D |---|---|---|-x-|---|
A |---|-x-|---|---|---|
E |---|-x-|---|---|---|
Or who I am Chorus: E5
E5
e |---|---|---|---|---|
B |---|---|---|---|---|
G |---|---|---|---|---|
D |---|-x-|---|---|---|
A |---|-x-|---|---|---|
E |---|---|---|---|---|
Oh 'cause no I don't mind B
B
e |---|-x-|---|---|---|
B |---|---|---|-x-|---|
G |---|---|---|-x-|---|
D |---|---|---|-x-|---|
A |---|-x-|---|---|---|
E |---|-x-|---|---|---|
If the sun don't shine A
A
e |---|---|---|---|---|
B |---|-x-|---|---|---|
G |---|-x-|---|---|---|
D |---|-x-|---|---|---|
A |---|---|---|---|---|
E |---|---|---|---|---|
B
B
e |---|-x-|---|---|---|
B |---|---|---|-x-|---|
G |---|---|---|-x-|---|
D |---|---|---|-x-|---|
A |---|-x-|---|---|---|
E |---|-x-|---|---|---|
'Cause I-I'm feeling more than alright E5
E5
e |---|---|---|---|---|
B |---|---|---|---|---|
G |---|---|---|---|---|
D |---|-x-|---|---|---|
A |---|-x-|---|---|---|
E |---|---|---|---|---|
B
B
e |---|-x-|---|---|---|
B |---|---|---|-x-|---|
G |---|---|---|-x-|---|
D |---|---|---|-x-|---|
A |---|-x-|---|---|---|
E |---|-x-|---|---|---|
Everything in my life, my life, my life, A
A
e |---|---|---|---|---|
B |---|-x-|---|---|---|
G |---|-x-|---|---|---|
D |---|-x-|---|---|---|
A |---|---|---|---|---|
E |---|---|---|---|---|
B
B
e |---|-x-|---|---|---|
B |---|---|---|-x-|---|
G |---|---|---|-x-|---|
D |---|---|---|-x-|---|
A |---|-x-|---|---|---|
E |---|-x-|---|---|---|
Is feeling just fine, C#
C#
e |-x-|---|---|---|---|
B |---|-x-|---|---|---|
G |-x-|---|---|---|---|
D |---|---|-x-|---|---|
A |---|---|---|-x-|---|
E |---|---|---|---|---|
5 G#
G#
e |---|---|---|-x-|---|
B |-x-|---|---|---|---|
G |-x-|---|---|---|---|
D |-x-|---|---|---|---|
A |---|---|---|---|---|
E |---|---|---|---|---|
A
A
e |---|---|---|---|---|
B |---|-x-|---|---|---|
G |---|-x-|---|---|---|
D |---|-x-|---|---|---|
A |---|---|---|---|---|
E |---|---|---|---|---|
Oh and if it gets to you uh huh here uh uh uh C#5
C#5
e |---|---|---|---|---|
B |---|---|---|---|---|
G |---|---|-x-|---|---|
D |---|---|-x-|---|---|
A |-x-|---|---|---|---|
E |---|---|---|---|---|
G#
G#
e |---|---|---|-x-|---|
B |-x-|---|---|---|---|
G |-x-|---|---|---|---|
D |-x-|---|---|---|---|
A |---|---|---|---|---|
E |---|---|---|---|---|
Then I'm starting to understand F#
F#
e |---|-x-|---|---|---|
B |---|-x-|---|---|---|
G |---|---|-x-|---|---|
D |---|---|---|-x-|---|
A |---|---|---|-x-|---|
E |---|-x-|---|---|---|
Just what it means B
B
e |---|-x-|---|---|---|
B |---|---|---|-x-|---|
G |---|---|---|-x-|---|
D |---|---|---|-x-|---|
A |---|-x-|---|---|---|
E |---|-x-|---|---|---|
Why I like you E5
E5
e |---|---|---|---|---|
B |---|---|---|---|---|
G |---|---|---|---|---|
D |---|-x-|---|---|---|
A |---|-x-|---|---|---|
E |---|---|---|---|---|
I do Intro again Verse: (same pattern of chords) So is there meaning to this feeling Or am I destined to achieve it Believing is decieving When I don't know the reasons See if it's true it's cool It's truly you There's nothing new that I won't do for you, And I know You know that I won't dwell on things That I don't understand I'm just trying to be The better man So here I am Oh 'cause no I don't mind If the sun don't shine 'Cause I-I'm feeling more than alright Everything in my life, my life, my life, Is feeling just fine, (Oh and if it get's to you uh huh here uh uh uh) Then I'm starting to understand Just what it means And I got rid of the fears Oh oooooo Solo (just keep playing the pattern of chords) (Oh and if it get's to you uh huh here uh uh uh) Then I'm starting to understand Just how I feel Why I like you 'Cause no I don't mind If the sun don't shine 'Cause I-I'm feeling more than alright Everything in my life, my life, my life, Is feeling just fine, Oh and it's because of you That I'm starting to understand I was confused Why I like you

Added On December 16th, 2013

SHARE

Comments

blog comments powered by Disqus

ADVERTISEMENT