Misc Unsigned Bands Tabs

Nicholas Jacquet - The Beast Approacheth

1 versions

TAB

            ---------------------------------------------------------
                  The Beast Approacheth
---------------------------------------------------------

Tabbed,Composed,and Arranged by: Nicholas Jacquet 5/20/11
Email: nickjacquet@yahoo.com

Tuning: DADGBE
Key: D Locrian
Meter: 4/4
122 BPM

Intro Riff:
         ee        ee        ee        ee
e|------------------------------------------|
B|------------------------------------------|
G|triplet---triplet---triplet---triplet-----|
D|-------5/6-------3/5-------5/6-------8/5--|
A|-------5/6-------3/5-------5/6-------8/5--|
D|-0-0-0-----0-0-0-----0-0-0-----0-0-0------|

Riff 1:

 s  s  s  s  s  s  s  s  s  s  s  s  s  s  s  s
e|---------------------------------------------|
B|---------------------------------------------|
G|---------------------------------------------|
D|---------------------------------------------|
A|---------------------------------10-11-13-11-|
D|-0-10-12-13-12-10-0-10-0-10-12-13------------|
   x                x    x  
 s  s  s  s  s  s  s  s  s  s  s  s  s  s  s  s
e|--------------------------------------------|
B|--------------------------------------------|
G|--------------------------------10-12-13-12-|
D|---------------------------12-13------------|
A|----------------------11-10-----------------|
D|-0-10-12-13-12-10-0-12----------------------|
   x                x 

Riff 2:

 s s s s s s s s s s s s s s s s s s s s s s s s s s s s s s s s
e|-----------------------------|-----------------------------|
B|-----------------------------|-----------------------------|
G|-----------------------------|-----------------------------|
D|--------------5------------3-|--------------6-5------------|
A|--------3-5-6---6-5-3-5-6-5-5|--------6-5--5---6-5-6-8-6-5-|
D|-6-0-3-5---------------------|-6-0-3/5---8-----------------|
   x x x x                       x x       x  

Chorus Riff in 5/4:(written for two guitars with same rhythm)

Guitar 1:
 triplet      
(e sss e+s sss sss s+e 8th rest)    

Added On December 16th, 2013

SHARE

Comments

blog comments powered by Disqus

ADVERTISEMENT