Misc Unsigned Bands Tabs

One Year Later - Foolish Man

1 versions

TAB

            Verse

---------------------------------|
---------------------------------|
-------4-4-4---------------------|
-5-5-5-2-2-2-5-5-5--7-8-7-5-3-2--|
-5-5-5-------3-3-3--7-8-7-5-3-2--|
-5-5-5---------------------------|

Lead Up

---------------------------------|
---------------------------------|
-----4-4-------------------------|
-5-5-2-2-5-5--7--9--13-----------|
-5-5-----3-3--5--7--11-----------|
-5-5-----------------------------|

Chorus

---------------------------------|
---------------------------------|
---------------------------------|
----------5-5-5-2-2-7-7----------|
-14-14-14-3-3-3-2-2-5-5----------|
-12-12-12-------2-2--------------|    

Added On December 16th, 2013

SHARE

Comments

blog comments powered by Disqus

ADVERTISEMENT