Misc Unsigned Bands Tabs

Rob Scallon - Untitled Forever

2 versions

TAB

            untited for now/untitled forever     

NOTICE THE DIFFERENT TUNING!                    


Track 1
      S S S S E  S S E  E  E  E     S S S S E  S S E  E  E  E   
F#||--1-3-1-0-----------------0--|--1-3-1-0-----------------0--|
B ||--0-----------------------0--|--0-----------------------0--|
G ||--0-----------------------0--|--0-----------------------0--|
D ||--0------------x-x--x--0-----|--0------------x-x--x--0-----|
G ||---------------x-x--x--0-----|---------------x-x--x--0-----|
D ||----------7--0---------0-----|----------7--0---------0-----|


  S S S S E  S S E  E  E  E     S S S S E  S S E  E  E  E   
--1-3-1-0-----------------0--|--1-3-1-0-----------------0--|
--0-----------------------0--|--0-----------------------0--|
--0-----------------------0--|--0-----------------------0--|
--0------------x-x--x--0-----|--0------------x-x--x--0-----|
----------7--0-x-x--x--0-----|----------7--0-x-x--x--0-----|
-----------------------0-----|-----------------------0-----|


  |-3-| |-3-| |-3-|                   |-3-| |-3-| |-3-|                 
  S S S S S S S S S E  E  E  E  E     S S S S S S S S S E  E  E  E  E   
--0-1-3-5-1-3-5-1-3-------------0--|--0-1-3-5-1-3-5-1-3----------------|
--0-----------------5--0--------0--|--0-----------------5--3--3--1--1--|
--0-----------------------------0--|--0--------------------0--0--0--0--|
--0-----------------------x--x--0--|--0--------------------0--0--0--0--|
--------------------------x--x-----|-----------------------0--0--0-----|
-----------------------------------|-----------------------------------|


  |-3-| |-3-| |-3-|                 
  S S S S S S S S S E  E  E  E  E   
--0-1-3-5-1-3-5-1-3-------------0--|
--0-----------------5--0--------0--|
--0-----------------------------0--|
--0-----------------------x--x--0--|
--------------------------x--x-----|
-----------------------------------|


  |-3-| |-3-| |-3-|    |-3-| |-3-| |-3-|                                
  S S S S S S S S S E  S S S S S S S S S E     E.  S E  E  E.  S E  E   
--0-1-3-5-1-3-5-1-3-0--5-0-3-------------0--|--5-----------5-----------|
--0--------------------------5-0-3-------0--|------5----5------7----7--|
--0--------------------------------5-0-4-0--|--------0-----------0-----|
--0--------------------------------------0--|--------------------------|
--------------------------------------------|--------------0-----------|
--------------------------------------------|--0-----------------------|


  E.  S E  E  S S E  E   E     E.  S E  E  E.  S E  E   
--5-------------------------|--5-----------5-----------|
------8----8--7-8-7---------|------5----5------7----7--|
--------0------------9s--7--|--------0-----------0-----|
--0-------------------------|--------------0-----------|
----------------------------|--------------------------|
----------------------------|--0-----------------------|


  E.  S E  E  S S E  E   E     E.  S E  E  E.  S E  E   
--5------------------8s--5--|--5-----------5-----------|
------8----8--7-8-7---------|------5----5------7----7--|
--------0-------------------|--------0-----------0-----|
----------------------------|--------------------------|
--0-------------------------|--------------0-----------|
----------------------------|--0-----------------------|


  E.  S E  E  S S E  E   E     E.  S E  E  E.  S E  E   
--5-------------------------|--5-----------5-----------|
------8----8--7-8-7---------|------5----5------7----7--|
--------0------------9s--7--|--------0-----------0-----|
--0-------------------------|--------------0-----------|
----------------------------|--------------------------|
----------------------------|--0-----------------------|


                 NH     NH                               
  E.  S E  E     Q      Q       E.  S E  E  E.  S E  E   
--5-----------12----5----|--------------------------|
------8----8--12----5----|------0-----------0-------|
--------0-----12-----------|--------0-----------0-----|
--------------12-----------|--7--------0--7--------0--|
--0-----------12-----------|--------------------------|
--------------12-----------|--5-----------5-----------|


  E.  S E  E  E.  S E  E     E.  S E  E  E.  S E  E   
------------------1-------|--------------------------|
------0-------------0-----|------0-----------0-------|
--------0-----5--------2--|--------0-----------0-----|
--5--------0--2-----------|--7--------0--7--------0--|
--4-----------------------|--------------------------|
--------------------------|--5-----------5-----------|


  E.  S E  E  E.  S E  E     E.  S E  E  E.  S E  E   
--------------------------|--------------------------|
------0-----------0-------|------0-----------0-------|
--------0-----------0-----|--------0-----------0-----|
--5--------0--4--------0--|--7--------0--7--------0--|
--4-----------2-----------|--------------------------|
--------------------------|--5-----------5-----------|


  E.  S E  E  E.  S E  E     E.  S E  E  E.  S E  E   
------------------1-------|--------------------------|
------0-------------0-----|------0-----------0-------|
--------0-----5--------2--|--------0-----------0-----|
--5--------0--2-----------|--7--------0--7--------0--|
--4-----------------------|--------------------------|
--------------------------|--5-----------5-----------|


  E.  S E  E  E.  S E  E     E.  S E  E  E.  S E  E   
--------------------------|--5-----------5-----------|
------0-----------0-------|------5----5------7----7--|
--------0-----------0-----|--------0-----------0-----|
--5--------0--4--------0--|--------------------------|
--4-----------2-----------|--------------0-----------|
--------------------------|--0-----------------------|


  E.  S E  E  S S E  E   E     E.  S E  E  E.  S E  E   
--5-------------------------|--5-----------5-----------|
------8----8--7-8-7---------|------5----5------7----7--|
--------0------------9s--7--|--------0-----------0-----|
--0-------------------------|--------------0-----------|
----------------------------|--------------------------|
----------------------------|--0-----------------------|


  E.  S E  E  S S E  E   E     E.  S E  E  E.  S E  E   
--5------------------8s--5--|--5-----------5-----------|
------8----8--7-8-7---------|------5----5------7----7--|
--------0-------------------|--------0-----------0-----|
----------------------------|--------------------------|
--0-------------------------|--------------0-----------|
----------------------------|--0-----------------------|


  E.  S E  E  S S E  E   E     E.  S E  E  E.  S E  E   
--5-------------------------|--5-----------5-----------|
------8----8--7-8-7---------|------5----5------7----7--|
--------0------------9s--7--|--------0-----------0-----|
--0-------------------------|--------------------------|
----------------------------|--------------0-----------|
----------------------------|--0-----------------------|


                 NH     NH                               
  E.  S E  E     Q      Q       E.  S E  E  E.  S E  E   
--5-----------12----5----|--------------------------|
------8----8--12----5----|------0-----------0-------|
--------0-----12-----------|--------0-----------0-----|
--0-----------12-----------|--7--------0--7--------0--|
--------------12-----------|--------------------------|
--------------12-----------|--5-----------5-----------|


  E.  S E  E  E.  S E  E     E.  S E  E  E.  S E  E   
------------------1-------|--------------------------|
------0-------------0-----|------0-----------0-------|
--------0-----5--------2--|--------0-----------0-----|
--5--------0--2-----------|--7--------0--7--------0--|
--4-----------------------|--------------------------|
--------------------------|--5-----------5-----------|


  E.  S E  E  E.  S E  E     E.  S E  E  E.  S E  E   
--------------------------|--------------------------|
------0-----------0-------|------0-----------0-------|
--------0-----------0-----|--------0-----------0-----|
--5--------0--4--------0--|--7--------0--7--------0--|
--4-----------2-----------|--------------------------|
--------------------------|--5-----------5-----------|


  E.  S E  E  E.  S E  E     E.  S E  E  E.  S E  E   
------------------1-------|--------------------------|
------0-------------0-----|------0-----------0-------|
--------0-----5--------2--|--------0-----------0-----|
--5--------0--2-----------|--7--------0--7--------0--|
--4-----------------------|--------------------------|
--------------------------|--5-----------5-----------|


  E.  S E  E  E.  S E  E     E.  S E  E  E.  S E  E   
--------------------------|--------------------------|
------0-----------0-------|------0-----------0-------|
--------0-----------0-----|--------0-----------0-----|
--5--------0--4--------0--|--9--------0--9--------0--|
--4-----------2-----------|--------------------------|
--------------------------|--5-----------5-----------|


  E.  S E  E  E.  S E  E     E.  S E  E  E.  S E  E   
------------------1-------|--------------------------|
------0-------------0-----|------0-----------0-------|
--------0-----7--------2--|--------0-----------0-----|
--7--------0--2-----------|--9--------0--9--------0--|
--4-----------------------|--------------------------|
--------------------------|--5-----------5-----------|


  E.  S E  E  E.  S E  E     E.  S E  E  E.  S E  E   
--------------------------|--------------------------|
------0-----------0-------|------0-----------0-------|
--------0-----------0-----|--------0-----------0-----|
--7--------0--5--------0--|--9--------0--9--------0--|
--4-----------2-----------|--------------------------|
--------------------------|--5-----------5-----------|


  E.  S E  E  E.  S E  E     E.  S E  E  E.  S E  E   
------------------1-------|--------------------------|
------0-------------0-----|------0-----------0-------|
--------0-----7--------2--|--------0-----------0-----|
--7--------0--2-----------|--9--------0--9--------0--|
--4-----------------------|--------------------------|
--------------------------|--5-----------5-----------|


  E.  S E  E  E.  S E  E     S S S S E  S S E  E  E  E   
--------------------------|--1-3-1-0-----------------0--|
------0-----------0-------|--0-----------------------0--|
--------0-----------0-----|--0-----------------------0--|
--7--------0--5--------0--|--0------------x-x--x--0-----|
--4-----------2-----------|---------------x-x--x--0-----|
--------------------------|----------7--0---------0-----|


  S S S S E  S S E  E  E  E     S S S S E  S S E  E  E  E   
--1-3-1-0-----------------0--|--1-3-1-0-----------------0--|
--0-----------------------0--|--0-----------------------0--|
--0-----------------------0--|--0-----------------------0--|
--0------------x-x--x--0-----|--0-------7--0-x-x--x--0-----|
----------7--0-x-x--x--0-----|---------------x-x--x--0-----|
-----------------------0-----|-----------------------0-----|


                                |-3-| |-3-| |-3-|                 
  S S S S E  S S E  E  E  E     S S S S S S S S S E  E  E  E  E   
--1-3-1-0-----------------0--|--0-1-3-5-1-3-5-1-3-------------0--|
--0-----------------------0--|--0-----------------5--0--------0--|
--0-------7--0------------0--|--0-----------------------------0--|
--0------------x-x--x--0-----|--0-----------------------x--x--0--|
---------------x-x--x--0-----|--------------------------x--x-----|
-----------------------0-----|-----------------------------------|


  |-3-| |-3-| |-3-|                   |-3-| |-3-| |-3-|                 
  S S S S S S S S S E  E  E  E  E     S S S S S S S S S E  E  E  E  E   
--0-1-3-5-1-3-5-1-3----------------|--0-1-3-5-1-3-5-1-3-------------0--|
--0-----------------5--3--3--1--1--|--0-----------------5--0--------0--|
--0--------------------0--0--0--0--|--0-----------------------------0--|
--0--------------------0--0--0--0--|--0-----------------------x--x--0--|
-----------------------0--0--0-----|--------------------------x--x-----|
-----------------------------------|-----------------------------------|


                                                  NH                 
  |-3-| |-3-| |-3-|    |-3-| |-3-| |-3-|                             
  S S S S S S S S S E  S S S S S S S S S E        W                  
--0-1-3-5-1-3-5-1-3-0--5-0-3-------------0--|--12----------------||
--0--------------------------5-0-3-------0--|--12----------------||
--0--------------------------------5-0-4-0--|--12----------------||
--0--------------------------------------0--|--12----------------||
--------------------------------------------|--12----------------||
--------------------------------------------|--12----------------||




Duration Legend
---------------
W - whole
H - half
Q - quarter
E - 8th
S - 16th
T - 32nd
X - 64th
. - note dotted
|-n-|  - n-tuplets


Tablature Legend
----------------
L - tied note
x - dead note
g - grace note
(n) - ghost note
> - accentuded note
NH - natural harmonic
AH - artificial harmonic
TH - tapped harmonic
SH - semi harmonic
PH - pitch harmonic
h - hammer on
p - pull off
b - bend
br - bendRelease
pb - preBend
pbr - preBendRelease
brb - bendReleaseBend
\n/ - tremolo bar dip
\n - tremolo bar dive
-/n - tremolo bar Release up
/n\ - tremolo bar inverted dip
/n - tremolo bar return
-\n - tremolo bar Release down
S - shift slide
s - legato slide
/ -  slide into from below or out of upwards
\ -  slide into from above or out of downwards
~ - vibrato
W - wide vibrato
tr - trill
TP - tremolo picking
T - tapping
S - slap
P - pop
< - fade in
^ - brush up
v - brush down    

Added On December 16th, 2013

SHARE

Comments

blog comments powered by Disqus

VERSIONS

ADVERTISEMENT