Misc Unsigned Bands Tabs

Skidbladnir - Dark Sun

1 versions

TAB

            Skidbladnir - dark sun (1998)

[1]
 |G1+2                   x4||
e|-------------------------||
B|-------------------------||
G|-------------------------||
D|-------------------------||
A|-7-77--7-77--5-55--3-33--||
E|-5-55--5-55--3-33--1-11--||

[2]
 |G1+2                   x4||
e|-------------------------||
B|-------------------------||
G|-------------------------||
D|-------------------------||
A|-7-77--7-77--99-9--10-10-||
E|-0-----------------------||

[3]
 |G1+2                   x4||
e|-------------------------||
B|-------------------------||
G|-9-99--9-----------------||
D|-------------99-9--9--9--||
A|-7-77--7-77--77-7--7--7--||
E|-0-----0-----88-8--8--8--||


[4]
 |G1+2                   x4||
e|-------------------------||
B|-------------------------||
G|-------------------------||
D|-------------------------||
A|----to be continued------||
E|-------------------------||


Timing: [1] [2] [3] ...to be continued

Tabbed by Viracocha (2010) music made by Bartek, Przemek, Piotrek    

Added On December 16th, 2013

SHARE

Comments

blog comments powered by Disqus

ADVERTISEMENT