Misc Unsigned Bands Tabs

Switch - Broked It Intro

2 versions

TAB

            E-5-5------------------|do this twice
A--4-6-----------------|
D----------------------|
G----------------------|
B----------------------|
E----------------------|

then it goes

E-0-0-----------------------|
A--0-2-0-2------------------|
D---------------------------|
G---------------------------|
B---------------------------|
E---------------------------|
then the chorus

this is my first tab so it is a little off

tabbed by skateman890@aim.com
give me feed back


standard tuning
yes i changed names    

Added On December 16th, 2013

SHARE

Comments

blog comments powered by Disqus

VERSIONS

ADVERTISEMENT