Misc Unsigned Bands Tabs

Teen Daze - Lets Fall Asleep Together

1 versions

TAB

            Teen Daze - Let's Fall Asleep Together
Standard Tuning



from first listen sounds like just D and G chords as the main rhythm. Probably power 
chords, something like...

e-10--10----------]-------------------|
B-10--12----------]-------------------|
G-11--12----------]---16--14--12------|
D-12--12----------]---16--14--12------|
A-12--10----------]---14--12--10------|
E-10---x----------]-------------------|

then the little riffs/fills are just playing with the high end of those chords. like the 
first little fill is...

e-----------10h12p10---------------------|
B-----------10----------10h11------------|
G-9-9\12----11---------------------------|
D-9-9\12---------------------------------|
A-7-7\10---------------------------------|
E----------------------------------------|


e-----------14-12p10---------------------|
B-----------10---------------------------|
G-9-9\12----11---------------------------|
D-9-9\12---------------------------------|
A-7-7\10---------------------------------|
E----------------------------------------|    

Added On December 16th, 2013

SHARE

Comments

blog comments powered by Disqus

ADVERTISEMENT