Misc Unsigned Bands Tabs

The Mitch Hansen Band - Lullaby

2 versions

TAB

            -------------------------------------------------------------------------------
			     LULLABY - The Mitch Hansen Band
-------------------------------------------------------------------------------
Tabbed by: Becca
Email: bemx@mugglenet.com

Tuning: Drop D
Additional Notes: Never play on the bottom three strings, 
and for the pre chorus and chorus it's easier to play when you bar it. 
Use this video where I figured out the notes to make the song more understandable.
http://www.youtube.com/watch?v=ps2Ebtd6ACU
This isn't completely 100% right.

| \  slide down
| h  hammer-on
| p  pull-off

e|------------------|      e|------------------------|
B|------------------|      B|------------------------|
G|------------------|      G|------------------------|
D|---6---6h7-----6-7|      D|---0---2p------0-------0|
A|-----6-----6------|      A|-----0-----0-----0-2/4--|
D|-7-----------7----|  x2  D|-0-----------0----------|  x2


e|------------------|      e|------------------------|
B|------------------|      B|------------------------|
G|------------------|      G|------------------------|
D|---6---6h7-----6-7|      D|---0---2p------0-------0|
A|-----6-----6------|      A|-----0-----0-----0-2/4--|
D|-7-----------7----|  x2  D|-0-----------0----------|  x2


e|------------------|      e|------------------------|
B|------------------|      B|------------------------|
G|------------------|      G|------------------------|
D|---6---6h7-----6-7|      D|---0---2p------0-------0|
A|-----6-----6------|      A|-----0-----0-----0-2/4--|
D|-7-----------7----|  x2  D|-0-----------0----------|  x2
     Being made of stone will make you strong, But I've been alone for oh so long.

e|------------------|      e|------------------------|
B|------------------|      B|------------------------|
G|------------------|      G|------------------------|
D|---6---6h7-----6-7|      D|---0---2p------0-------0|
A|-----6-----6------|      A|-----0-----0-----0-2/4--|
D|-7-----------7----|  x2  D|-0-----------0----------|  x2
     Then there you were, a silent mind, With beauty that I thought I'd never find

e|-----------------------------------------|
B|-----------------------------------------|
G|-----------------------------------------|
D|-7-----------------------------------7---|
A|-4-----------------------------------7---|
D|-4-----------------------------------7---|
   Something strange is happening and I don't know what to do


e|---------------------------------------------------|
B|---------------------------------------------------|
G|---------------------------------------------------|
D|-2-------------------------------4-------2----2----|
A|-0-------------------------------0-------0----0----|
D|-0-------------------------------0-------0----0----|
   I haven't felt my heart beat in over 90 years

e|------------------------------------|
B|------------------------------------|
G|------------------------------------|
D|-7------------------------------7---|
A|-4------------------------------7---|
D|-4------------------------------7---|
   I love the way you look at me, When you're thinking no one else can see


e|-----------------------------------------------------|
B|-----------------------------------------------------|
G|-----------------------------------------------------|
D|-2-----------------------------4-----------2----2----|
A|-0-----------------------------0-----------0----0----|
D|-0-----------------------------0-----------0----0----|
   I feel like someone different when you're near.

e|-----------------------------------------------------|
B|-----------------------------------------------------|
G|-----------------------------------------------------|
D|-7-----------------2--------------7-------------0----|
A|-7-----------------2--------------4-------------0----|
D|-7-----------------2--------------4-------------0----|
   So, sleep now and hold me tight, Everything will be alright.

e|----------------------------------------------|
B|----------------------------------------------|
G|----------------------------------------------|
D|-7-----------------2---------------7-----0----|
A|-7-----------------2---------------4-----0----|
D|-7-----------------2---------------4-----0----|
   Just lay down and rest your weary eyes.

e|----------------------------------------------------------|
B|----------------------------------------------------------|
G|----------------------------------------------------------|
D|-7-----------------2--------------7------------------0----|
A|-7-----------------2--------------4------------------0----|
D|-7-----------------2--------------4------------------0----|
   Calm down, you're safe with me, I love you more than you can see.

e|---------------------------------------------------------------|
B|---------------------------------------------------------------|
G|---------------------------------------------------------------|
D|-7------------------2------------------7-----0-7-9-7-----------|
A|-7------------------2------------------4-----0-0-0-0-----------|
D|-7------------------2------------------4-----0-0-0-0-----------|
   You need your rest and so I wrote you this

e|------------------|      e|------------------------|
B|------------------|      B|------------------------|
G|------------------|      G|------------------------|
D|---6---6h7-----6-7|      D|---0---2p------0-------0|
A|-----6-----6------|      A|-----0-----0-----0-2/4--|
D|-7-----------7----|  x2  D|-0-----------0----------|  x2
   Lullaby

e|------------------|      e|------------------------|
B|------------------|      B|------------------------|
G|------------------|      G|------------------------|
D|---6---6h7-----6-7|      D|---0---2p------0-------0|
A|-----6-----6------|      A|-----0-----0-----0-2/4--|
D|-7-----------7----|  x2  D|-0-----------0----------|  x2

e|------------------|      e|------------------------|
B|------------------|      B|------------------------|
G|------------------|      G|------------------------|
D|---6---6h7-----6-7|      D|---0---2p------0-------0|
A|-----6-----6------|      A|-----0-----0-----0-2/4--|
D|-7-----------7----|  x2  D|-0-----------0----------|  x2
   Could someone who has a soul, Have such a hard time staying in control.

e|------------------|      e|------------------------|
B|------------------|      B|------------------------|
G|------------------|      G|------------------------|
D|---6---6h7-----6-7|      D|---0---2p------0-------0|
A|-----6-----6------|      A|-----0-----0-----0-2/4--|
D|-7-----------7----|  x2  D|-0-----------0----------|  x2
   Eternity can wait a while, I'll miss the way you blush when you smile.

e|-----------------------------------------|
B|-----------------------------------------|
G|-----------------------------------------|
D|-7-----------------------------------7---|
A|-4-----------------------------------7---|
D|-4-----------------------------------7---|
   Something strange is happening and I don't know what to do


e|---------------------------------------------------|
B|---------------------------------------------------|
G|---------------------------------------------------|
D|-2-------------------------------4-------2----2----|
A|-0-------------------------------0-------0----0----|
D|-0-------------------------------0-------0----0----|
   I haven't felt my heart beat in over 90 years

e|------------------------------------|
B|------------------------------------|
G|------------------------------------|
D|-7------------------------------7---|
A|-4------------------------------7---|
D|-4------------------------------7---|
   I love the way you look at me, When you're thinking no one else can see


e|-----------------------------------------------------|
B|-----------------------------------------------------|
G|-----------------------------------------------------|
D|-2-----------------------------4-----------2----2----|
A|-0-----------------------------0-----------0----0----|
D|-0-----------------------------0-----------0----0----|
   I feel like someone different when you're near.

e|-----------------------------------------------------|
B|-----------------------------------------------------|
G|-----------------------------------------------------|
D|-7-----------------2--------------7-------------0----|
A|-7-----------------2--------------4-------------0----|
D|-7-----------------2--------------4-------------0----|
   So, sleep now and hold me tight, Everything will be alright.

e|----------------------------------------------|
B|----------------------------------------------|
G|----------------------------------------------|
D|-7-----------------2---------------7-----0----|
A|-7-----------------2---------------4-----0----|
D|-7-----------------2---------------4-----0----|
   Just lay down and rest your weary eyes.

e|----------------------------------------------------------|
B|----------------------------------------------------------|
G|----------------------------------------------------------|
D|-7-----------------2--------------7------------------0----|
A|-7-----------------2--------------4------------------0----|
D|-7-----------------2--------------4------------------0----|
   Calm down, you're safe with me, I love you more than you can see.

e|---------------------------------------------------------------|
B|---------------------------------------------------------------|
G|---------------------------------------------------------------|
D|-7------------------2------------------7-----0-7-9-7-----------|
A|-7------------------2------------------4-----0-0-0-0-----------|
D|-7------------------2------------------4-----0-0-0-0-----------|
   You need your rest and so I wrote you this

e|------------------|      e|------------------------|
B|------------------|      B|------------------------|
G|------------------|      G|------------------------|
D|---6---6h7-----6-7|      D|---0---2p------0-------0|
A|-----6-----6------|      A|-----0-----0-----0-2/4--|
D|-7-----------7----|  x2  D|-0-----------0----------|  x2
   Lullaby

e|------------------|      e|------------------------|
B|------------------|      B|------------------------|
G|------------------|      G|------------------------|
D|---6---6h7-----6-7|      D|---0---2p------0-------0|
A|-----6-----6------|      A|-----0-----0-----0-2/4--|
D|-7-----------7----|  x2  D|-0-----------0----------|  x2

e|-----------------------------------------|
B|-----------------------------------------|
G|-----------------------------------------|
D|-7-----------------------------------7---|
A|-4-----------------------------------7---|
D|-4-----------------------------------7---|
   Something strange is happening and I don't know what to do


e|---------------------------------------------------|
B|---------------------------------------------------|
G|---------------------------------------------------|
D|-2-------------------------------4-------2----2----|
A|-0-------------------------------0-------0----0----|
D|-0-------------------------------0-------0----0----|
   I haven't felt my heart beat in over 90 years

e|------------------------------------|
B|------------------------------------|
G|------------------------------------|
D|-7------------------------------7---|
A|-4------------------------------7---|
D|-4------------------------------7---|
   I love the way you look at me, When you're thinking no one else can see


e|-----------------------------------------------------|
B|-----------------------------------------------------|
G|-----------------------------------------------------|
D|-2-----------------------------4-----------2----2----|
A|-0-----------------------------0-----------0----0----|
D|-0-----------------------------0-----------0----0----|
   I feel like someone different when you're near.

e|-----------------------------------------------------|
B|-----------------------------------------------------|
G|-----------------------------------------------------|
D|-7-----------------2--------------7-------------0----|
A|-7-----------------2--------------4-------------0----|
D|-7-----------------2--------------4-------------0----|
   So, sleep now and hold me tight, Everything will be alright.

e|----------------------------------------------|
B|----------------------------------------------|
G|----------------------------------------------|
D|-7-----------------2---------------7-----0----|
A|-7-----------------2---------------4-----0----|
D|-7-----------------2---------------4-----0----|
   Just lay down and rest your weary eyes.


e|----------------------------------------------------------|
B|----------------------------------------------------------|
G|----------------------------------------------------------|
D|-7-----------------2--------------7------------------0----|
A|-7-----------------2--------------4------------------0----|
D|-7-----------------2--------------4------------------0----|
   Calm down, you're safe with me, I love you more than you can see.

e|---------------------------------------------------------------|
B|---------------------------------------------------------------|
G|---------------------------------------------------------------|
D|-7------------------2------------------7-----0-7-9-7-----------|
A|-7------------------2------------------4-----0-0-0-0-----------|
D|-7------------------2------------------4-----0-0-0-0-----------|
   You need your rest and so I wrote you this

e|------------------|      e|------------------------|
B|------------------|      B|------------------------|
G|------------------|      G|------------------------|
D|---6---6h7-----6-7|      D|---0---2p------0-------0|
A|-----6-----6------|      A|-----0-----0-----0-2/4--|
D|-7-----------7----|  x2  D|-0-----------0----------|  x2
   Lullaby

e|------------------|      e|------------------------|
B|------------------|      B|------------------------|
G|------------------|      G|------------------------|
D|---6---6h7-----6-7|      D|---0---2p------0-------0|
A|-----6-----6------|      A|-----0-----0-----0-2/4--|
D|-7-----------7----|  x2  D|-0-----------0----------|  x2    

Added On December 16th, 2013

SHARE

Comments

blog comments powered by Disqus

VERSIONS

ADVERTISEMENT