Misc Unsigned Bands Tabs

The Pollywogs - Hold Your Hand

1 versions

TAB

            Chords used:

Fmaj7 (x3321x)
C     (032010)
Em    (022000)
Am    (002210)
D     (x00232)
F     (133211)
G     (355433)
G7    (353433)

Intro:

   Fmaj7    C      Em       Am
e--12------12------12------------------------------|
B------13------13-----12---13----------------------|
G------------------------------14------------------|
D--------------------------------------------------|
A--------------------------------------------------|
E--------------------------------------------------|


Verse 1:

F
Am
F
Am


Pre-Chorus:

C D F G G7


Chorus:

4x
Fmaj7
C
Em
Am



Verse 2:

F
Am
F   (fill-in: e-string: 18x 1-1-1-1-....)
Am  (fill-in: e-string: 12x 5-5-5-5-....)

Chorus:

4x 
Fmaj7
C
Em
Am


Solo:

  Fmaj7                C               Em             Am
e-1--1--1-0----------------------------0-0-0-------5-5-5-5-3-|
B------------3---1-1----1-0-1-0-1---------------3------------|
G------------------------------------------------------------|
D------------------------------------------------------------|
A------------------------------------------------------------|
E------------------------------------------------------------|

   Fmaj7            C               Em
e-1--1-1-0-----------------------------------------|
B-----------3---1-1--1-0-1-0-1---------------------|
G--------------------------------------------------|
D--------------------------------------------------|
A--------------------------------------------------|


  Fmaj7                C               Em             Am
e-1--1--1-0----------------------------0-0-0-------5-5-5-5-3-|
B------------3---1-1----1-0-1-0-1---------------3------------|
G------------------------------------------------------------|
D------------------------------------------------------------|
A------------------------------------------------------------|
E------------------------------------------------------------|

   Fmaj7            C               Em
e-1--1-1-0----------------------------------5b--3--|
B-----------3---1-1--1-0-1-0-1---------------------|
G--------------------------------------------------|
D--------------------------------------------------|
A--------------------------------------------------|



Pre-Chorus:

C D F G G7



Chorus:

4x

Fmaj7
C
Em
Fmaj

  Fmaj7                C               Em             Am
e-1--1--1-0----------------------------0-0-0-------5-5-5-5-3-|
B------------3---1-1----1-0-1-0-1---------------3------------|
G------------------------------------------------------------|
D------------------------------------------------------------|
A------------------------------------------------------------|
E------------------------------------------------------------|

   Fmaj7            C               Em
e-1--1-1-0----------------------------------5b--3--|
B-----------3---1-1--1-0-1-0-1---------------------|
G--------------------------------------------------|
D--------------------------------------------------|
A--------------------------------------------------|

  Fmaj7                C               Em             Am
e-1--1--1-0----------------------------0-0-0-------5-5-5-5-3-|
B------------3---1-1----1-0-1-0-1---------------3------------|
G------------------------------------------------------------|
D------------------------------------------------------------|
A------------------------------------------------------------|
E------------------------------------------------------------|

   Fmaj7            C               Em
e-1--1-1-0----------------------------------5b--3--|
B-----------3---1-1--1-0-1-0-1---------------------|
G--------------------------------------------------|
D--------------------------------------------------|
A--------------------------------------------------|



Outro: 

Fmaj7
C
Em
Am    

Added On December 16th, 2013

SHARE

Comments

blog comments powered by Disqus

ADVERTISEMENT