Misc Unsigned Bands Tabs

The Sugarland Run - In The Hollow Of Thy Hand

1 versions

TAB

            This is the version heard on the RM. little bit faster and whatnot then you might 
hear janice kapp perry do it

during the chorus i didnt have enough room to write out all the words so i just 
wrote the word above the chord where it changes

strumming pattern is irrelevant i mean, if you listen to the song it's pretty much 
all down and pretty fast. but you can just make something up that sounds just as good.

e|-----------------------------------------------|
B|-----------------------------------------------|  repeat this once, then
G|-----------------------------------------------|  end on 5
D|---9--7--5--------9--7--5-------9--7--5-4-0----|
A|-----------------------------------------------|
E|-----------------------------------------------|

   "Dear lord blesess us with love..."
e|-----------------------------------------------|
B|-----------------------------------------------|
G|-----------------------------------------------|
D|--3-------------------------7------------------|
A|--3-------------------------7------------------|
E|--5-------------------------5------------------|


    "please send this day, thy spirit from above"
e|-----------------------------------------------|      this is the speed
B|-----------------------------------------------|      every verse is played
G|--7--------------------------------------------|     at. so instead of
D|--7----------------------------------------3---|      writing out every line
A|--5----------------------------------------3---|      I'll just skip to the
E|-------------------------------------------5---|      chorus.
                                                      (although this repeats
                                                       every verse)
   hollow        hand       grows            man
e|-----------------------------------------------|
B|-----------------------------------------------|
G|---------------------------7-------------------|    

Added On December 16th, 2013

SHARE

Comments

blog comments powered by Disqus

ADVERTISEMENT