Misc Unsigned Bands Tabs

Tim Wiman - My First Song

1 versions

TAB

            E--------------------------|
B--------------------------|
G--------------------------|
D--------3-5b--5-3---------|
A----3-5-----------5-3-0---|
D--0-----------------------|

E--------------------------|
B--------------------------|
G--------------------------|
D--------3-5b--5-3---------|
A----3-5-----------5-3-0---|
D--0-----------------------|

E--------------------------|
B--------------------------|
G--------------------------|
D--------3-5b--5-3---------|
A----3-5-----------5-3-0---|
D--0-----------------------|

E--------------------------|
B--------------------------|
G--------------------------|
D--------3-5b--5-3---------|
A----3-5-----------5-3-0---|
D--0-----------------------|    

Added On December 16th, 2013

SHARE

Comments

blog comments powered by Disqus

ADVERTISEMENT