Misc Unsigned Bands Tabs

Walk Of The Fallen - Just One Blink

1 versions

TAB

            Just a Blink
--------------

Intro
  G7              C               G7              C
e-------------------------------------------------------------------|
B---0---0---0---0---1---1---1---1---0---0---0---0---1---1---1---1---|
G---0---0---0---0---0---0---0---0---0---0---0---0---0---0---0---0---|
D-------------------------------------------------------------------|
A-----------------3---3---3---3-------------------3---3---3---3-----|
E-3---3---3---3-------------------3---3---3---3---------------------|

Verse 1
  G7              C               G7              C
e-------------------------------------------------------------------|
B---0---0---0---0---1---1---1---1---0---0---0---0---1---1---1---1---|
G---0---0---0---0---0---0---0---0---0---0---0---0---0---0---0---0---|
D-------------------------------------------------------------------|
A-----------------3---3---3---3-------------------3---3---3---3-----|
E-3---3---3---3-------------------3---3---3---3---------------------|

  G7              C               G7              C
e-------------------------------------------------------------------|
B---0---0---0---0---1---1---1---1---0---0---0---0---1---1---1---1---|
G---0---0---0---0---0---0---0---0---0---0---0---0---0---0---0---0---|
D-------------------------------------------------------------------|
A-----------------3---3---3---3-------------------3---3---3---3-----|
E-3---3---3---3-------------------3---3---3---3---------------------|

Bridge
  D              C                D              C
e-------------------------------------------------------------------|
B---3---3---3---3---1---1---1---1---3---3---3---3---1---1---1---1---|
G---0---0---0---0---0---0---0---0---0---0---0---0---0---0---0---0---|
D-------------------------------------------------------------------|
A-5---5---5---5---3---3---3---3---5---5---5---5---3---3---3---3-----|
E-------------------------------------------------------------------|

Interlude
  G7              C               G7              C
e-------------------------------------------------------------------|
B---0---0---0---0---1---1---1---1---0---0---0---0---1---1---1---1---|
G---0---0---0---0---0---0---0---0---0---0---0---0---0---0---0---0---|
D-------------------------------------------------------------------|
A-----------------3---3---3---3-------------------3---3---3---3-----|
E-3---3---3---3-------------------3---3---3---3---------------------|

Chorus
  Em              Am              Em              Am
e-------------------------------------------------------------------|
B---0---0---0---0---1---1---1---1---0---0---0---0---1---1---1---1---|
G---0---0---0---0---2---2---2---2---0---0---0---0---2---2---2---2---|
D-------------------------------------------------------------------|
A-2---2---2---2---0---0---0---0---2---2---2---2---0---0---0---0-----|
E-------------------------------------------------------------------|

  Em              Am              Em              Am
e-------------------------------------------------------------------|
B---0---0---0---0---1---1---1---1---0---0---0---0---1---1---1---1---|
G---0---0---0---0---2---2---2---2---0---0---0---0---2---2---2---2---|
D-------------------------------------------------------------------|
A-2---2---2---2---0---0---0---0---2---2---2---2---0---0---0---0-----|
E-------------------------------------------------------------------|

Interlude
  G7              C               G7              C
e-------------------------------------------------------------------|
B---0---0---0---0---1---1---1---1---0---0---0---0---1---1---1---1---|
G---0---0---0---0---0---0---0---0---0---0---0---0---0---0---0---0---|
D-------------------------------------------------------------------|
A-----------------3---3---3---3-------------------3---3---3---3-----|
E-3---3---3---3-------------------3---3---3---3---------------------|

Verse 2
  G7              C               G7              C
e-------------------------------------------------------------------|
B---0---0---0---0---1---1---1---1---0---0---0---0---1---1---1---1---|
G---0---0---0---0---0---0---0---0---0---0---0---0---0---0---0---0---|
D-------------------------------------------------------------------|
A-----------------3---3---3---3-------------------3---3---3---3-----|
E-3---3---3---3-------------------3---3---3---3---------------------|

  G7              C               G7              C
e-------------------------------------------------------------------|
B---0---0---0---0---1---1---1---1---0---0---0---0---1---1---1---1---|
G---0---0---0---0---0---0---0---0---0---0---0---0---0---0---0---0---|
D-------------------------------------------------------------------|
A-----------------3---3---3---3-------------------3---3---3---3-----|
E-3---3---3---3-------------------3---3---3---3---------------------|

Bridge
  D              C                D              C
e-------------------------------------------------------------------|
B---3---3---3---3---1---1---1---1---3---3---3---3---1---1---1---1---|
G---0---0---0---0---0---0---0---0---0---0---0---0---0---0---0---0---|
D-------------------------------------------------------------------|
A-5---5---5---5---3---3---3---3---5---5---5---5---3---3---3---3-----|
E-------------------------------------------------------------------|

Interlude
  G7              C               G7              C
e-------------------------------------------------------------------|
B---0---0---0---0---1---1---1---1---0---0---0---0---1---1---1---1---|
G---0---0---0---0---0---0---0---0---0---0---0---0---0---0---0---0---|
D-------------------------------------------------------------------|
A-----------------3---3---3---3-------------------3---3---3---3-----|
E-3---3---3---3-------------------3---3---3---3---------------------|

Bridge
  D              C                D              C
e-------------------------------------------------------------------|
B---3---3---3---3---1---1---1---1---3---3---3---3---1---1---1---1---|
G---0---0---0---0---0---0---0---0---0---0---0---0---0---0---0---0---|
D-------------------------------------------------------------------|
A-5---5---5---5---3---3---3---3---5---5---5---5---3---3---3---3-----|
E-------------------------------------------------------------------|

Chorus
  Em              Am              Em              Am
e-------------------------------------------------------------------|
B---0---0---0---0---1---1---1---1---0---0---0---0---1---1---1---1---|
G---0---0---0---0---2---2---2---2---0---0---0---0---2---2---2---2---|
D-------------------------------------------------------------------|
A-2---2---2---2---0---0---0---0---2---2---2---2---0---0---0---0-----|
E-------------------------------------------------------------------|

  Em              Am              Em              Am
e-------------------------------------------------------------------|
B---0---0---0---0---1---1---1---1---0---0---0---0---1---1---1---1---|
G---0---0---0---0---2---2---2---2---0---0---0---0---2---2---2---2---|
D-------------------------------------------------------------------|
A-2---2---2---2---0---0---0---0---2---2---2---2---0---0---0---0-----|
E-------------------------------------------------------------------|    

Added On December 16th, 2013

SHARE

Comments

blog comments powered by Disqus

ADVERTISEMENT