Misc Tabs

Breakdown

1 versions

TAB

            Hey fellows! Just for u who wants some ide for breakdowns.

Here u got some of that.


For 6 string  (B, E, A, D, G, E)




|-------------------------------|
|-------------------------------|
|-------------------------------|
|---------------------------^---|
|---------------------------4~~-|
|-000------000000---0-0-0-------|
  ...      ......   . . .


---------------------------------|
---------------------------------|
-----------------------------1/4-|
---------------------------bend--|
---------------------------3-----|
-------x0-x0-1--x0-x0---0--------|    

Added On December 16th, 2013

SHARE

Comments

blog comments powered by Disqus

ADVERTISEMENT