Misfits Tabs

Vivid Red

1 versions

TAB

            Vivid Red - Misfits - The Devil's Rain
Tabbed by MetalHead2475

My favorite song off the album, and not very hard either.

Intro Lick
e|-----------|
B|-----------|
G|--5--6--5--|
D|--5--6--5--|
A|--3--4--3--|
E|-----------|


Main riff
e|--------------------------------------------------------|
B|--------------------------------------------------------|
G|-5-5-5-5-5-5-6--6-6-6-6-6-6----------------5----5--6--5-|
D|-5-5-5-5-5-5-6--6-6-6-6-6-6-6--6-6-6-6-6-6-5----5--6--5-|
A|-3-3-3-3-3-3-4--4-4-4-4-4-4-6--6-6-6-6-6-6-3----3--4--3-|
E|----------------------------4--4-4-4-4-4-4--------------|

Chorus
e|--------------------------------------------------------------|
B|--------------------------------------------------------------|
G|--5--5-5-5-5-5-5-8--8-8-8-8-8-8-7--7-7-7-7-7-7-5--5-5-5-5-5-5-|
D|--5--5-5-5-5-5-5-8--8-8-8-8-8-8-7--7-7-7-7-7-7-5--5-5-5-5-5-5-|
A|--3--3-3-3-3-3-3-6--6-6-6-6-6-6-5--5-5-5-5-5-5-3--3-3-3-3-3-3-|
E|--------------------------------------------------------------|

e|--------------------------------------------------------------|
B|--------------------------------------------------------------|
G|--5--5-5-5-5-5-5-8--8-8-8-8-8-8-10-8--7--8--7-----------------|
D|--5--5-5-5-5-5-5-8--8-8-8-8-8-8-10-8--7--8--7--8--10----------|
A|--3--3-3-3-3-3-3-6--6-6-6-6-6-6-8--6--5--6--5--8--10----------|
E|-----------------------------------------------6--8-----------|

Bridge
e|-------------------------------|
B|-------------------------------|
G|--5--6--5--5-5-5-5-5-5-5-5-5-5-|
D|--5--6--5--5-5-5-5-5-5-5-5-5-5-|
A|--3--4--3--3-3-3-3-3-3-3-3-3-3-|
E|-------------------------------|

Outro
e|-----------------|
B|-----------------|
G|--5------5--6--5-|
D|--5------5--6--5-|
A|--3------3--4--3-|
E|-----------------|


Order:
Intro Lick x1
Main Riff x4
Chorus x1
Intro Lick x1
Main Riff x4
Chorus x1
Bridge x4
Intro Lick x1
Chorus x1
Bridge x4
Outro x1

Thanks for reading!    

Added On December 16th, 2013

SHARE

Comments

blog comments powered by Disqus

ADVERTISEMENT