Mission Tabs

And The Dance Goes On

1 versions

TAB

            The Mission
And The Dance Goes On
God's Own Medicine
Transcribed by: Tom Quinn

Band website:
http://www.themissionuk.com/

I combined the recorded and early live versions into a single interpretation of this 
song.  I personally think it's the best of both worlds.  This is in a weird D major/minor 
scale (the closest I could find is "D Manavi"), but most of it is D major.  Feel 
free to e-mail me (M0L3CH@yahoo.com)with any corrections.  Enjoy ;)

Tuning: Standard (E A D G B e)

INTRO/CHORUS RIFF                                                             Repeat
e|---------------------------------------------------------------------------------||
B|------6--5h6p5-----------6--5h6p5-----------6--5h6p5-----------------6~---5-----o||
G|----5----------5-------5----------5-------5----------5-----5h7p5------------5----||
D|--0--------------0---0--------------0---0--------------0--------h7-0----0--------||
A|--------------------------------------------------------------------------------o||
E|---------------------------------------------------------------------------------||


VERSE RIFF A                            Repeat x3
e|--------------------------------------------||
B|-------------------------------------------o||
G|------2-----5-----7---10-----12-----14------||
D|--(0)---0-0---0-0---0----0-0----0-0----0----||
A|-------------------------------------------o||
E|--------------------------------------------||


VERSE RIFF B
e|--------------------------------------------||
B|-------------------------------------------o||
G|------2-----5-----7---10-----9-----7--------||
D|--(0)---0-0---0-0---0----0-0---0-0---0------||
A|-------------------------------------------o||
E|--------------------------------------------||


BRIDGE                                                          Repeat
e|--0--0--0--0---0-0--0-0-----0--0--0--0---0-0--0---------0----------||
B|--0--0--0--0---0-0--0-0-----0--0--0--0---0-0--0-------------------o||
G|--14-14-14-9---9-10-9-7-----14-14-14-9---9-10-9-----7-----7--------||
D|--14-14-14-9---9-10-9-7-----14-14-14-9---9-10-9---7---7-----7------||
A|--12-12-12-7---7-8--7-5-----12-12-12-7---7-8--7-5-------------5---o||
E|-------------------------------------------------------------------||


The lyrics are all online, and mostly correct.  Have fun.


Key:

( )= Ghost note
 h = Hammer-on
 p = Pull-off
 ~ = Vibrato    

Added On December 16th, 2013

SHARE

Comments

blog comments powered by Disqus

ADVERTISEMENT