Miyavi Tabs

Shiawase Nara Te O Tatakou

1 versions

TAB

            Shiawase Nara Te O Tatakou Tab by Miyavi


Miyavi - Shiawase Nara te o Tatakou (If your happy and you know it!)

Tabbed by : Keyser
Date : 22 / 04 / 06

Heh, heh, heh...can't believe I'm tabbing this...

Tuning - C#,F#,B,E,G#,C#

Palm Mute or Left Hand Mute : X
Slide Down :
Slide Up : /
Tremolo : ~
Harmonics : ()
Hammer On : h
Pull Off : p

Intro :

C#|---------------------------------------|
G#|--7---7---7---7---7---7---7---7-7-7-7--|
E |--7---7---7---7---7---7---7---7-7-7-7--|
B |--7---7---7---7---7---7---7---7-7-7-7--|
F#|--5---5---5---5---5---5---5---5-5-5-5--|
C#|---------------------------------------|

Main :

C#|--------5------5---5--------3---3-3-------------5-5-5-5-----|
G#|--7---7-5------5---5-7------3---3-3--7-7-7-7----5-5-5-5--7--|
E |--7---7-6------6---6-7------4---4-4--7-7-7-7----6-6-6-6--7--|
B |--7---7-7------5---5-7------5---5-5--7-7-7-7----7-7-5-5--7--|
F#|--5---5-7------7---7-5------5---5-5--5-5-5-5----7-7-7-7--5--|
C#|--------5------5---5--------3---3-3-------------5-5-5-5-----|

Riff :

C#|----------------------------------------------------------------------|
G#|----------------------------------------------------------------------|
E |--3/7--6--7--9------3/9--7--9--11------12--12--12--11--9--11^--11p9---|
B |----------------------------------------------------------------------|
F#|----------------------------------------------------------------------|
C#|----------------------------------------------------------------------|

C#|-------------------------|
G#|-------------------------|
E |--7--9--9--9--7--6--7----|
B |-------------------------|
F#|-------------------------|
C#|-------------------------|

To be honest, I think you can guess the rest...

Just play the Main bit over the Riff, only faster and a more 'Ska' feeling behind it. It 
helps to play with upstrokes, rather than downstrokes...

...and add plenty of vibrato to the riff...gives it some oomph...    

Added On December 5th, 2013

SHARE

Comments

blog comments powered by Disqus

ADVERTISEMENT