Mnemonic Tabs

Pain And Sorrow

1 versions

TAB

            Pain And Sorrow Tablature

Tabbed by: Jules Gatz
Website: http://www.reverbnation.com/bandmnemonic

Legend:

0 = Open Note
U = Strum Up
D = Strum Down
\ = Slide Down

Tuning: Drop C

Verses, Chorus, and everything else - PT1
D ----------------------------------------------|
A ----------------------------------------------|
F ----------------------------------------------|
c ----15----15--15--14-----15----15--15--17-----|
G --0-----0----0---0-----0-----0----0---0-------|
C 0--------------------0------------------------|

Verses, Chorus, and everything else - PT2
D ----------------------------------------------|
A ----------------------------------------------|
F -------------------------10-10-10-10-10\7-7---|
c ----15----15--15--14-----10-10-10-10-10\7-7---|
G --0-----0----0---0---8-8-8--8--8--8--8-\5-5---|
C 0--------------------8-8-8--8--8--8--8-\5-5---|    

Added On December 16th, 2013

SHARE

Comments

blog comments powered by Disqus

ADVERTISEMENT