Mokoma Tabs

Hiljaisuuden Julistaja

2 versions

TAB

            v.0.3 3.2.2005
                               HILJAISUUDEN JULISTAJA

Tablat: Johannes/Sami + fiksejä Kuisma

Gtr I (D A D G B E) - 'Kuisma'
Gtr II (D A D G B E) - 'Tuomo'

Tsekkaa merkkien selitykset lopusta! Kirjaimet tabulatuurin päällä 
tarkoittavat nuotin pituutta. Esim. E = kahdeksasosanuotti.

Intro:

Q=210
4/4


Riffi1  Gtrs I, II
  E Q.   E E Q
|-----------------||
|-----------------||
|-----------------||
|-----------------||
|-0------3-5-6----||
|-0------3-5-6----||


Riffi2  Gtrs I, II
  PM----|           PM----|          PM----|
  E E E E E E E E   E E E E E Q  E   E E E E E E E E   E E E E E E Q
|-----------------|----------------|-----------------|-----------------||
|-----------------|----------------|-----------------|-----------------||
|-----------------|----------------|-----------------|-----------------||
|-----------------|----------------|-----------------|-5-4---4---4-----||
|---------5-3-5-6-|---------5-3----|---------5-3-5-6-|-----6---6---5---||
|-0-0-0-0---------|-0-0-0-0------6-|-0-0-0-0---------|-----------------||


Riffi2


1. Säkeistö:

Riffi3i  Gtrs I, II
  PM----|     PM    PM  PM|     PM    PM  PM|     PM    PM--------|
  E E E E E E E E   E E E E E E E E   E E E E E E E E   E E E E E E Q
|-----------------|-----------------|-----------------|-----------------||
|-----------------|-----------------|-----------------|-----------------||
|-----------------|-----------------|-----------------|-----------------||
|---------------3-|-----------------|---------------3-|-----------------||
|-----------------|---5-----------3-|-----------------|---5-3-2-3-------||
|-2-2-2-2-3p2-2---|-2---2-2-3p2-2---|-2-5-2-2-3p2-2---|-2---------5-3---||


Riffi3i x3


Kertosäe:

Riffi4A  Gtrs I, II
  PM|    PM|      PM|              PM|    PM|      PM|
  E E Q  E E Q    E E Q  E E E E   E E Q  E E Q    E E Q  E Q  E
|---------------|----------------|---------------|---------------||
|---------------|----------------|---------------|---------------||
|---------------|----------------|---------------|--------7-5--8-||
|---------------|----------------|---------------|---------------||
|-----0------0--|-----0----------|-----0------0--|-----0--5-3--6-||
|-0-0-0--0-0-0--|-0-0-0--5-3-5-6-|-0-0-0--0-0-0--|-0-0-0---------||


Riffi4B  Gtrs I, II
  PM|    PM|      PM|              PM|    PM|
  E E Q  E E Q    E E Q  E E E E   E E Q  E E Q    E H..
|---------------|----------------|---------------|----------||
|---------------|----------------|---------------|----------||
|---------------|----------------|---------------|----------||
|---------------|----------------|---------------|----------||
|-----0------0--|-----0----------|-----0------0--|-0--------||
|-0-0-0--0-0-0--|-0-0-0--5-3-5-6-|-0-0-0--0-0-0--|-0--------||


2. Säkeistö:

Riffi3i x4


Kertosäe:

Riffi4 (A ja B)


Moshpart:

Riffi5i  Gtrs I, II
  PM|    PM|      PM|    PM--------|   PM  PM  PM    PM  PM  PM----|
  E E Q  E E Q    E E Q  E E E E   E E E E E E E E   E E E E E E E E
|---------------|----------------|-----------------|-----------------||
|---------------|----------------|-----------------|-----------------||
|---------------|----------------|-----------------|-----------------||
|---------------|----------------|-----------------|-----------------||
|-0-0----0-0----|-0-0----0-0-0-0-|-0---0---0---0---|-0---0---0-0-0-0-||
|-0-0----0-0----|-0-0----0-0-0-0-|-0---0---0---0---|-0---0---0-0-0-0-||


Riffi5i x2



Riffi5ii  Gtr I
  PM|    PM|      PM|    PM--------|       PM      PM      PM        PM      PM      PM----|
  E E Q  E E Q    E E Q  E E E E   E   E   E   E   E   E   E   E     E   E   E   E   E E E E
|---------------|----------------|---------------------------------|-------------------------||
|---------------|----------------|---------------------------------|-------------------------||
|---------------|----------------|---------------------------------|-------------------------||
|---------------|----------------|---------------------------------|-------------------------||
|-0-0----0-0----|-0-0----0-0-0-0-|-0-------0-------0-------0-------|-0-------0-------0-0-0-0-||
|-0-0----0-0----|-0-0----0-0-0-0-|-0-------0-------0-------0-------|-0-------0-------0-0-0-0-||
|
| Gtr II
| PM|    PM|      PM|    PM--------|     PM|     PM|     PM|     PM--|     PM|     PM------|
|                                  |--3--| |--3--| |--3--| |--3--|   |--3--| |--3--|
| E E Q  E E Q    E E Q  E E E E   E S S E E S S E E S S E E S S E   E S S E E S S E E E E E  
|---------------|----------------|---------------------------------|-------------------------||
|---------------|----------------|---------------------------------|-------------------------||
|---------------|----------------|---------------------------------|-------------------------||
|---------------|----------------|---------------------------------|-------------------------||
|-0-0----0-0----|-0-0----0-0-0-0-|-0-----0-0-----0-0-----0-0-----0-|-0-----0-0-----0-0-0-0-0-||
|-0-0----0-0----|-0-0----0-0-0-0-|-0h3p0-0-0h3p0-0-0h3p0-0-0h3p0-0-|-0h3p0-0-0h3p0-0-0-0-0-0-||


Riffi5iii  Gtr I
  PM|     PM|       PM|     PM--------|   PM  PM  PM    PM  PM  PM----|
  E E Q   E E Q     E E Q   E E E E   E E E E E E E E   E E E E E E E E
|-----------------|-----------------|-----------------|-----------------||
|-----------------|-----------------|-----------------|-----------------||
|-----------------|-----------------|-----------------|-----------------||
|-----------------|-----------------|-----------------|-----------------||
|-0-0-----0-0-----|-0-0-----0-0-0-0-|-0---0---0---0---|-0---0---0-0-0-0-||
|-0-0-----0-0-----|-0-0-----0-0-0-0-|-0---0---0---0---|-0---0---0-0-0-0-||
|
| Gtr II
| PM----|           PM----|           PM----|
| E E E E E E E E   E E E E E Q   E   E E E E E E E E   E E E E E E Q
|-----------------|-----------------|-----------------|-----------------||
|-----------------|-----------------|-----------------|-----------------||
|-----------------|-----------------|-----------------|-----------------||
|-----------------|-----------------|-----------------|-5-4---4---4-----||
|---------5-3-5-6-|---------5-3-----|---------5-3-5-6-|-----6---6---5---||
|-0-0-0-0---------|-0-0-0-0-------6-|-0-0-0-0---------|-----------------||


Riffi5iii


Soolo:

Riffi3ii  Gtrs I, II
  PM----|     PM    PM  PM|     PM    PM  PM|     PM    PM--------|
  E E E E E E E E   E E E E E E E E   E E E E E E E E   E E E E E E Q
|-----------------|-----------------|-----------------|-----------------||
|-----------------|-----------------|-----------------|-----------------||
|-----------------|-----------------|-----------------|-----------------||
|---------------3-|-----------------|---------------3-|-----------------||
|-----------------|---5-----------3-|-----------------|-------------3---||
|-2-2-2-2-3p2-2---|-2---2-2-3p2-2---|-2-5-2-2-3p2-2---|-2-2-2-2-2-2-3---||


Riffi3ii


Riffi6A  Gtrs I, II
  PM----|     PM    PM  PM|     PM    PM  PM|     PM    PM--------|
  E E E E E E E E   E E E E E E E E   E E E E E E E E   E E E E E E Q
|-----------------|-----------------|-----------------|-----------------||
|-----------------|-----------------|-----------------|-----------------||
|-----------------|-----------------|-----------------|-----------------||
|---------------5-|-----------------|---------------5-|-----------------||
|-----------------|---7-----------5-|-----------------|-------------5---||
|-4-4-4-4-5p4-4---|-4---4-4-5p4-4---|-4-7-4-4-5p4-4---|-4-4-4-4-4-4-5---||



Riffi6B  Gtrs I, II
  PM----|     PM    PM  PM|     PM    PM  PM|     PM|   
  E E E E E E E E   E E E E E E E E   E E E E E E E E   W
|-----------------|-----------------|-----------------|------||
|-----------------|-----------------|-----------------|------||
|-----------------|-----------------|-----------------|------||
|---------------5-|-----------------|-----------------|------||
|-----------------|---7-----------5-|-----------------|-4----||
|-4-4-4-4-5p4-4---|-4---4-4-5p4-4---|-4-7-4-4-5p4-4-4-|-4----||


Osa C:

Riffi2 x2


Kertosäe:

Riffi4 (A ja B) x2



Duration Legend
---------------
W - whole; H - half; Q - quarter; E - 8th; S - 16th; T - 32nd; X - 64th; a - acciaccatura
+ - note tied to previous; . - note dotted; .. - note double dotted
Uncapitalized letters represent notes that are staccato (1/2 duration)
Irregular groupings are notated above the duration line
Duration letters will always appear directly above the note/fret number it represents the
duration for.  Duration letters with no fret number below them represent rests.  Multi-
bar rests are notated in the form Wxn, where n is the number of bars to rest for.  Low
melody durations appear below the staff

Tablature Legend
----------------
 h   - hammer-on
 p   - pull-off
 b   - bend
 pb  - pre-bend
 r   - bend release (if no number after the r, then release immediately)
 /\  - slide into or out of (from/to "nowhere")
 s   - legato slide
 S   - shift slide
  - natural harmonic
[n]  - artificial harmonic
n(n) - tapped harmonic
 ~   - vibrato
 tr  - trill
 T   - tap
 TP  - trem. picking
 PM  - palm muting
\n/  - tremolo bar dip; n = amount to dip
 \n  - tremolo bar down
 n/  - tremolo bar up
/n\  - tremolo bar inverted dip
 =   - hold bend; also acts as connecting device for hammers/pulls
   - volume swell (louder/softer)
 x   - on rhythm slash represents muted slash
 o   - on rhythm slash represents single note slash

Misc Legend
-----------
 |  - bar
||  - double bar
||o - repeat start
o|| - repeat end
*|  - double bar (ending)
 :  - bar (freetime)
 $  - Segno
 &  - Coda
Tempo markers -  = BPM(8/16=s8/s16), where s8 = swing 8ths, s16 = swing 16ths


***************************************************************************************
* Generated using Power Tab Editor by Brad Larsen - http://powertab.guitarnetwork.org *
***************************************************************************************    

Added On December 16th, 2013

SHARE

Comments

blog comments powered by Disqus

VERSIONS

ADVERTISEMENT