Molotov Tabs

Frijolero

3 versions

TAB

            Frijolero Tab by Molotov


Artista: Molotov
Canción: Frijolero

Bueno se que ya tiene un buen la canción en la radio, y ya debería de haber
un tab descente, pues esta aqui!.

la canción no me gusta mucho en cuanto a musica (excepto la batería que es lo
que la diferencia de las canciones rancheras, :), la letra esta excelente
demuestra como, desde el principio, molotov odia el rascismo, bueno sin mas tonterías aqui va.

Intro
e--------------------------------
b--------------------------------
g--------------------------------
D--------------------------------
A------10-11-12-12-12-12-10-8----
E--12-------------------------12-

Intro parte 2 y Coro

Dm Am Em Am


Verso

Am Dm Em Am

Solo (jajaja)

e-------------------------------
b-------------------------------
g-------------------------------
D-------------------------------
A-----10-11-12-12-12-12-10-8----
E-12-------------------------12-

e--------------------12-10-8------------------------------------
b--13-12-13-12-13-12---------10--8-10-12-13-12-13-12-13-12-8-10-
g---------------------------------------------------------------
D---------------------------------------------------------------
A---------------------------------------------------------------
E---------------------------------------------------------------

e---------------------------12-10-8------------------------------------------
b-8-10-12-13-12-13-12-13-12---------10-8-10-12-13-12-13-12-13-12-13-12-13-15-
g----------------------------------------------------------------------------
D----------------------------------------------------------------------------
A----------------------------------------------------------------------------
E----------------------------------------------------------------------------

e-------------------------------
b-------------------------------
g-------------------------------
D-------------------------------
A-----10-11-12-12-12-12-10-8----
E-12-------------------------12-

Bueno eso es todo el solo esta demasiado fácil, pero se oye bien, ojala y les haya gustado

c0m3nt@rios, sug3r3nci@s o cualquier otra cosa a :
rafa88offspring@hotmail.com    

Added On December 5th, 2013

SHARE

Comments

blog comments powered by Disqus

VERSIONS

ADVERTISEMENT