Monkey Majik Tabs

Get Started

1 versions

TAB

            -------------------------------------------------------------------------------
			     GET STARTED - Monkey Majik
-------------------------------------------------------------------------------
Album: Get Started
Tabbed by: GuetaMinute
Email: guetaminute@hotmail.com

Tuning: Standard

This is the LIVE version. A bit better than the original. Whole song, too.

Intro/Main Riff/Verse (Lead)
e|------------------------------------------|
B|------------------------------------------|
G|------------------------------------------|
D|---4-4---4---6-6---6---2-2--2---7-7--6-6--|
A|---5-5---5-/-7-7---7-\-4-4--4-/-9-9--7-7--|
E|------------------------------------------|

Rhythm Riff/Chorus:
e|------------------------------------------|
B|------------------------------------------|
G|------------------------------------------|
D|--777777-/11--\9--7-/11-\9----------------|
A|--000000--00---0--0--00--0----------------|
E|------------------------------------------|

Rhythm fills:
e|-10---7---7---5---------------------------|
B|-12---9---9---7---------------------------|
G|------------------------------------------|
D|------------------------------------------|
A|------------------------------------------|
E|------------------------------------------|

Chorus:
e|-------------------------------------------|
B|-------------------------------------------|
G|--7--9---6-----11---9----------------------|
D|--7--9---7-----11---9----------------------|
A|--5--7---7-----9----7----------------------|
E|---------5---------------------------------|

************************************

| /   slide up
| \   slide down
| h   hammer-on
| p   pull-off
| ~   vibrato
| +   harmonic
| x   Mute note
| b   Bend
| pb  Pre-bend
| br  Bend release
| pbr Pre-bend release
| brb Bend release bend

************************************    

Added On December 16th, 2013

SHARE

Comments

blog comments powered by Disqus

ADVERTISEMENT