Monkey Majik Tabs

Morning-evening

1 versions

TAB

            -------------------------------------------------------------------------------
			     MORNING-EVENING - Monkey Majik
-------------------------------------------------------------------------------
Album: TIME
Tabbed by: guetaminute
Email: guetaminute@hotmail.com

Tuning: Standard

e|---------------------------------------------------------------------------|
B|---------------------------------------------------------------------------|
G|-----------4--2--------------4--2----------------5--4------------5--4------|
D|------2----------2----2------------2-------3-----------3----3-----------3--|
A|---3----3-----------3----3------------3/5-----5-----------5----5-----------|
E|---------------------------------------------------------------------------|

e|------------------------------------------------------------------------------------|
B|------------------------------------------------------------------------------------|
G|---------------7---5---------------7--5-------------------5-4-----------5-4---------|
D|------5---------------5------5------------5--------3----------3----3----------------|
A|---/7----7----------------7------7------------7\5-----5----------5----5-------------|
E|------------------------------------------------------------------------------------|

e|--3----------------------5-----------------------------------------------------|
B|--5----------------------6-----------------------------------------------------|
G|--4----------------------5-----------------------------------------------------|
D|--5----------------------7-----------------------------------------------------|
A|--3----------------------5-----------------------------------------------------|
E|-------------------------------------------------------------------------------|

That's all I know

************************************

| /   slide up
| \   slide down
| h   hammer-on
| p   pull-off
| ~   vibrato
| +   harmonic
| x   Mute note
| b   Bend
| pb  Pre-bend
| br  Bend release
| pbr Pre-bend release
| brb Bend release bend

************************************    

Added On December 16th, 2013

SHARE

Comments

blog comments powered by Disqus

ADVERTISEMENT