Motorhead Tabs

Another Perfect Day

1 versions

TAB

            Intro (Clean)                                          
e|-------------|-------------|-------------|-----------------|
B|---------3---|---------3---|---------3---|---------3-------|
G|-------5-----|-------5-----|-------5-----|-------5---------|
D|-----------5-|-----------5-|-----------5-|-----------5-5-5-|
A|-------------|-------------|-------------|-----------5-5-5-|
E|-0-3-5-------|-0-3-5-------|-0-3-5-------|-0-3-5-----3-3-3-|

Verse                 3 times                    4th time
e|---------------------------|---------0-----------------|
B|---------------------------|---------0-----------------|
G|---------5-----7-----------|---------1--7-7-7--5-------|
D|-2-5-7---5-----7---5-------|-7-5---2-2--7-7-7--5---5-7-|
A|-2-5-7---3-----5---5-------|-7-5-2-2-2--5-5-5--3---5-7-|
E|-0-3-5-0---0-0---0-3-0-0-0-|-5-3-0-0-0-------------3-5-|
         .   . .   .   . . .       .     
Chorus
e|-----------------|--------------------|
B|-----------------|--------------------|
G|-----------------|-----------------7--|
D|-8-8-8-8-8-8-8-8-|-7-7-7-7-5-5-5-5-7--|
A|-5-5-5-5-5-5-5-5-|-5-5-5-5-5-5-5-5-5--|
E|-----------------|--------------------|



I will add the intro solo hopefully in the near future    

Added On December 16th, 2013

SHARE

Comments

blog comments powered by Disqus

ADVERTISEMENT