Mountain Goats Tabs

Idylls Of The King

1 versions

TAB

            -------------------------------------------------------------------------------
			Idylls Of the King - The Mountain Goats
-------------------------------------------------------------------------------
Tabbed by: StairwaytoHeavn
Email: n0cturneshad0w@aol.com

Intro/Verse:

   D                 ???(Gm/A?)    Bm7               G

e--2--x-2--2-2-2-x-|-3--3---3-3-3---|-----------------|-3--3---3-3-3------|
B--3--x-3--3-3-3-x-|-3--3---3-3-3---|-3--x-3--3-3-3-x-|-3--3---3-3-3------|
G--2--x-2--2-2-2-x-|-3--3---3-3-3---|-2--x-2--2-2-2-x-|-4--4---4-4-4------|
D------------------|-2--2---2-2-2---|-4--x-4--4-4-4-x-|-5--5---5-5-5------|
A------------------|----------------|-2--x-2--2-2-2-x-|-5--5---5-5-5------|
E------------------|----------------|-----------------|-3--3---3-3-5---(0)|


                                       Intro end:
                                      |
   G (open)          D                |A                  D
                                      |
e--------3-3--------|---2-2--2-------| |-----------------|-2--2--2-2-2----|
B--(3)(3)3-3--3-2-0-|-3-3-3--3-3-----| |-2--x-2--2-2-2---|-3--3--3-3-3----|
G---0-(0)0-0--------|-2-2-2--2-2-----| |-2--x-2--2-2-2---|-2--2--2-2-2----|
D---0--0-0-0--------|-0-0-0--0-0-----| |-2--x-2--2-2-2---|-0--0--0-0-0----|
A---2--2-2----------|----------------| |-0--x-0--0-0-0---|----------------|
E---3--3-3----------|----------------| |-----------------|----------------|


 Verse end:
|
| Asus4             A
|
|-----------------|----------------|
|-3--x-3--3-3-3---|-2--2--2-2-2----|
|-2--x-2--2-2-2---|-2--2--2-2-2----|
|-2--x-2--2-2-2---|-2--2--2-2-2----|
|-0--x-0--0-0-0---|-0--0--0-0-0----|
|-----------------|----------------|

Chorus:

   D                G
                                    x2
e--2--2-2--2-2-2--|-3--3-3--3-3-3--|
B--3--3-3--3-3-3--|-3--3-3--3-3-3--|
G--2--2-2--2-2-2--|-0--0-0--0-0-0--|
D--0--0-0--0-0-0--|-0--0-0--0-0-0--|    Then
A-----------------|-2--2-2--2-2-2--|
E-----------------|-3--3-3--3-3-3--|

   D                A

e--2--2-2--2-2-3--|----------------|
B--3--3-3--3-3-3--|-2--2-2--2-2-2--|
G--2--2-2--2-2-2--|-2--2-2--2-2-2--|
D--0--0-0--0-0-0--|-2--2-2--2-2-2--|
A-----------------|-0--0-0--0-0-0--|
E-----------------|----------------|


Bridge:

  E7               A7               D
                                                                     x3
e----------------|-0----0--0-0-0--|-2--x-2--2-2-2--|-3--3-3--3-3-3---|
B-0----0--0-0-0--|-2--x-2--2-2-2--|-3--x-3--3-3-3--|-3--3-3--3-3-3---|
G-1--x-1--1-1-1--|-0--x-0--0-0-0--|-2--x-2--2-2-2--|-0--0-0--0-0-0---|
D-0--x-0--0-0-0--|-2--x-2--2-2-2--|-0----0--0-0-0--|-0--0-0--0-0-0---|
A-2--x-2--2-2-2--|-0----0--0-0-0--|----------------|-2--2-2--2-2-2---|
E-0----0--0-0-0--|----------------|----------------|-3--3-3--3-3-3---|

  G                D                Asus4           A

e-3--3-3--3-3-3--|-2--2-2--2-2-2--|----------------|-----------------|
B-3--3-3--3-3-3--|-3--3-3--3-3-3--|-3--3-3--3-3-3--|-2--2-2--2-2-2---|
G-0--0-0--0-0-0--|-2--2-2--2-2-2--|-2--2-2--2-2-2--|-2--2-2--2-2-2---|
D-0--0-0--0-0-0--|-0--0-0--0-0-0--|-2--2-2--2-2-2--|-2--2-2--2-2-2---|
A-2--2-2--2-2-2--|----------------|-0--0-0--0-0-0--|-0--0-0--0-0-0---|
E-3--3-3--3-3-3--|----------------|----------------|-----------------|

The muting isn't so much nessecary in this song at all, I just think it sounds more 
but it sounds just as good if you just strum the appropriate chord instead....anyway

The order is:
Intro
Versex2
Chorus
Intro
Versex2
Chorus
Bridge
Versex2
Chorus

Any comments, corrections, critism, or whatever just email or comment.    

Added On December 16th, 2013

SHARE

Comments

blog comments powered by Disqus

ADVERTISEMENT