Mudhoney Tabs

Mudride

1 versions

TAB

            Standard Tuning
Intro/Rhythm - Heavy Distortion
E:---------------------------------------------------------|
B:---------------------------------------------------------|
G:----4---6----6----4---6----6-----------------------------|
D:--------------------------------4---6----6----4---6----6-|
A:--4---4---------4---4------------------------------------|
E:------------------------------4---4---------4---4--------|

Chorus
E:-------------------------------------------------------------------|
B:-------------------------------------------------------------------|
G:--7-7-7-7-7-7-7-7-6-6-6-6-6-6-6-6----------------------------------|
D:--7-7-7-7-7-7-7-7-6-6-6-6-6-6-6-6-6-6-6-6-6-6-6-6-6-6-6-6-6-6-6-6--|
A:--5-5-5-5-5-5-5-5-4-4-4-4-4-4-4-4-6-6-6-6-6-6-6-6-6-6-6-6-6-6-6-6--|
E:----------------------------------4-4-4-4-4-4-4-4-4-4-4-4-4-4-4-4--|

E:-------------------------------------------------------------------|
B:-------------------------------------------------------------------|
G:--7-7-7-7-7-7-7-7-6-6-6-6-6-6-6-6----------------------------------|
D:--7-7-7-7-7-7-7-7-6-6-6-6-6-6-6-6-4-4-4-4-4-4-4-4-4-4-4-4-4-4-4-4--|
A:--5-5-5-5-5-5-5-5-4-4-4-4-4-4-4-4-4-4-4-4-4-4-4-4-4-4-4-4-4-4-4-4--|
E:----------------------------------2-2-2-2-2-2-2-2-2-2-2-2-2-2-2-2--|

And that's it :)    

Added On December 16th, 2013

SHARE

Comments

blog comments powered by Disqus

ADVERTISEMENT