Mudvayne Tabs

The End Of All Things To Come

3 versions

TAB

            The End Of All Things To Come Tab by Mudvayne


Song: "The End of All Things To Come"
Artist: Mudvayne
Album: The End of All Things To Come
Transcribed By: Corey Adamson (beyfpia666@aol.com) aim (the sickness 69x)
This is a great song. th whole cd is. mudvayne kix. this is my 1st tab and
im pretty sure its very damn close so check it out.

Tuning: Drop D, 1 Step Down (C,G,C,F,A,D)

INTRO: (played fast)
|---------------------|
|---------------------|
|---------------------|
|---------------------|
|-3-2-0-2-1-0-3-2-0-1-|
|-3-2-0-2-1-0-3-2-0-1-|

CHORUS:
|-----------------------------------------------|
|-----------------------------------------------|
|-----------------------------------------------|
|-----------------------------------------------|
|-3200-3200-320200-0-0-320210320210320210-0-0-0-|
|-3200-3200-320200-0-0-320210320210320210-0-0-0-|

VERSE:
|----------------------|
|----------------------|
|----------------------|
|----------------------|
|----------------------|
|-1-1-1-1-1p0--1-1-1p0-|

VERSE FILL: (palm mute)
|---------------|
|---------------|
|---------------|
|---------------|
|-3-2-0-2-1-0-0-|
|-3-2-0-2-1-0-0-|

VERSE 2:
|--------------------|
|--------------------|
|--------------------|
|--------------------|
|--------------------|
|-1-1-1-1-1p0--1-1-0-|

INTERLUDE:
|-------------------------|
|-------------------------|
|-----7/8\5---------------|
|-----X-X-X---------------|
|-0-0-5/6\5-6-5-3-0-3h5-3-|
|-0-0-------6-5-3-0-3h5-3-|
pm. .       . . . .

INTERLUDE 2:
|-----------------------|
|-----------------------|
|-----7/8\5-------------|
|-----X-X-X-------------|
|-0-0-5/6\5-6-5-3-0-3-5-|
|-0-0-------6-5-3-0-3-5-|
pm. .       . . . .

INTERLUDE 3:
|------------------------|
|------------------------|
|------------------------|
|-0-0-1-0----------------|
|-0-0-1-0--6-5-3-0-3h5-3-|
|-0-0-1-0--6-5-3-0-3h5-3-|
pm. .      . . . .

INTERLUDE 4:
|----------------------------------------------|
|----------------------------------------------|
|----------------------------------------------|
|----------------------------------------------|
|-3-2-0-2-1-0-3-2-0-1--X-X-X-X-X-X-X-X-X-X-X-X-|
|-3-2-0-2-1-0-3-2-0-1--X-X-X-X-X-X-X-X-X-X-X-X-|    

Added On December 5th, 2013

SHARE

Comments

blog comments powered by Disqus

VERSIONS

ADVERTISEMENT