Mumford And Sons Tabs

Lovers Eyes

1 versions

TAB

            Tuning: D A D F# A D
 
Finger Picking Pattern for Intro/Verse 1
For everything else      Special(*) Parts
|-0---|                  |--0---0---|
|-----|                  |----------|
|---0-|                  |--------0-|
|-----|                  |----0-----|
|-----|                  |----------|
|-----|                  |----------|


Intro/Verse 1:
|--0*-----0----0------0-0*----0---0---0*---0---0---0*---0------0------0-0*-|
|--------------------------------------------------------------------------|
|--0*-----2----0h2----2/4*----5---4---7*---5---4---2*---2/4----4\2----2p0*-|
|--0*-------------------0*------------0*-----------0*-------------------0*-|
|--------------------------------------------------------------------------|
|--------------------------------------------------------------------------|

Finger Picking Pattern for Chorus 1
1st Part           2nd Part
|-0---|            |--0---0---|
|-----|            |----------|
|---0-|            |--------0-|
|-----|            |----0-----|
|-----|            |----------|
|-----|            |----------|

Chorus 1:
1st Part           2nd Part
|--5-0-7-0---|(2x) |--9-0-7-0-5-0-7-|
|--x-0-x-0---|     |--x-0-x-0-x-0-x-|
|--0-0-0-0---|     |--9-0-0-0-0-0-0-|
|--5-0-7-0---|     |--8-0-7-0-5-0-7-|
|--0-0-0-0---|     |--0-0-0-0-0-0-0-|
|--0-0-0-0---|     |--0-0-0-0-0-0-0-|

Break: 

|--0-0-| (3x)  |-0-|
|--0-2-|       |-0-|
|--0-0-|       |-0-|
|--0-1-|       |-0-|
|--0-0-|       |-0-|
|--0-0-|       |-0-|

Verse 2: (strum pattern emphasizes 6th and 4th strings)
|--0-----0----0-0----0-0----0---0---0---0---0---0---0---0---0---0--0------|
|--0-----0----0-0----0-0----0---0---0---0---0---0---0---0---0---0--0------|
|--0-----2----0h2----2/4----5---4---7---5---4---2---2---2---2---2--0------|
|--0-----0----0-0----0-0----0---0---0---0---0---0---0---0---0---0--0------|
|--0-----0----0-0----0-0----0---0---0---0---0---0---0---0---0---0--0------|
|--0-----0----0-0----0-0----0---0---0---0---0---0---0---0---0---0--0------|

Picking Pattern for Chorus 2
|--0---0---|
|----------|
|--------0-|
|----0-----|
|----------|
|----------|

Chorus 2:
|--5-0-7-0---|(2x) |--9-0-7-0-5-0-7-|
|--x-0-x-0---|     |--x-0-x-0-x-0-x-|
|--0-0-0-0---|     |--9-0-0-0-0-0-0-|
|--5-0-7-0---|     |--8-0-7-0-5-0-7-|
|--0-0-0-0---|     |--0-0-0-0-0-0-0-|
|--0-0-0-0---|     |--0-0-0-0-0-0-0-|

Break (start strumming):

|--0-0-| (3x)  |-0-|
|--0-2-|       |-0-|
|--0-0-|       |-0-|
|--0-1-|       |-0-|
|--0-0-|       |-0-|
|--0-0-|       |-0-|

Bridge/Instrumental:
|--0-7-0-9-5-0-|
|--0-x-0-x-x-0-|
|--0-0-0-9-0-0-|
|--0-7-0-8-5-0-|
|--0-0-0-0-0-0-|
|--0-0-0-0-0-0-|

Outro:
|--0-----0----0-0----0-0----0---0---0---0---0---0---0-0----0-0----0-0-|
|--0-----0----0-0----0-0----0---0---0---0---0---0---0-0----0-0----0-0-|
|--0-----2----0h2----2/4----5---4---7---5---4---2---2/4----4\2----2p0-|
|--0-----0----0-0----0-0----0---0---0---0---0---0---0-0----0-0----0-0-|
|--0-----0----0-0----0-0----0---0---0---0---0---0---0-0----0-0----0-0-|
|--0-----0----0-0----0-0----0---0---0---0---0---0---0-0----0-0----0-0-|


Lyrics:

Verse 1:
Love was kind, for a time
Now just aches, and it makes me blind
This mirrors holds my eyes too bright
That I can't see the others in my life

We too young and heads too strong
To bear the weight of these lover's eyes
Cuz I feel numb beneath your tongue
Beneath the curse of these lover's eyes.

Chorus 1:
But do not ask the price I pay, I must live with my quiet rage
Tame the ghosts in my head that run wild and wish me dead
Should you shake my ash to the wind
Lord forget all of my sins
Oh let me die where I lie beneath the curse of my lover's eyes

Break:

Verse 2:
Cuz there's no drink or drug I've tried 
To rid the curse of these lover's eyes
And I feel numb beneath your tongue
Your strength just makes me feel less strong

Chorus 2:
But do not ask the price I pay, I must live with my quiet rage
Tame the ghosts in my head that run wild and wish me dead
Should you shake my ash to the wind
Lord forget all of my sins
Oh let me die where I lie 'neath the curse of my lover's eyes

Break:

Bridge: (2x)
But I walk slow, I walk slow
Take my hand, help me on my way.

Instrumental: (4x)

Bridge: (2x)
 
Outro: (2x)    

Added On December 16th, 2013

SHARE

Comments

blog comments powered by Disqus

ADVERTISEMENT