Mumford And Sons Tabs

Timeshel

1 versions

TAB

            Tuning: DADGBe


Verse: play x2

|--------------------------------------------------------------|
|--------------------------------------------------------------|
|--------------------------------------------------------------|
|-------0-----0-----0-----0-----0-----0----------0-------------|
|--------------------------------------------h2---------0------|
|----0-----0-----0-----0-----0-----0-----0----------0----------|

|--------------------------------------------------------------|
|--------------------------------------------------------------|
|--------------------------------------------------------------|
|-------0-----0-----0-----0-----0-----0----------0-------------|
|--------------------------------------------h2---------0------|
|----0-----0-----0-----0-----0-----0-----0----------0----------|

|----------------------------------------------------------------------------------|
|----------------------------------------------------------------------------------|
|----------------------------------------------------------------------------------|
|-------0-----0-----0-----0-----0-----0-----5-----5-----4-----4-----0-----0--------|
|----------------------------------------------------------------------------------|
|----0-----0-----0-----0-----0-----0-----0-----0-----0-----0-----0-----0-----------|

|----------------------------------------------------------------------------------|
|----------------------------------------------------------------------------------|
|----------------------------------------------------------------------------------|
|-------0-----0-----5-----5-----4-----4-----0-----0----------0---------------------|
|--------------------------------------------------------h2---------0--------------|
|----0-----0-----0-----0-----0-----0-----0-----0-----0----------0------------------|



Chorus:

|----------------------------------------------------------------------------------|
|----------------------------------------------------------------------------------|
|----------------------------------------------------------------------------------|
|-------0-----0-----0-----0-----0-----0-----7-----7-----7-----7-----5-----5--------|
|----------------------------------------------------------------------------------|
|----0-----0-----0-----0-----0-----0-----0-----0-----0-----0-----0-----0-----------|

|----------------------------------------------------------------------------------|
|----------------------------------------------------------------------------------|
|----------------------------------------------------------------------------------|
|-------0-----0-----4-----4-----4-----4-----9-----9-----7-----7-----12-----12------|
|----------------------------------------------------------------------------------|
|----0-----0-----0-----0-----0-----0-----0-----0-----0-----0-----0-----0-----------|

|----------------------------------------------------------------------------------|
|----------------------------------------------------------------------------------|
|----------------------------------------------------------------------------------|
|-------0-----0-----4-----4-----4-----4-----5-----5-----4-----4-----2-----2--------|
|----------------------------------------------------------------------------------|
|----0-----0-----0-----0-----0-----0-----0-----0-----0-----0-----0-----0-----------|

|-------------------------------------------|
|-------------------------------------------|
|-------------------------------------------|
|-------0-----0--------0-----0-----0--------|
|----------------------2-----0-----5--------|
|----0-----0-----0-----0-----0-----0--------|



Verse: play x2

|--------------------------------------------------------------|
|--------------------------------------------------------------|
|--------------------------------------------------------------|
|-------0-----0-----0-----0-----0-----0----------0-------------|
|--------------------------------------------h2---------0------|
|----0-----0-----0-----0-----0-----0-----0----------0----------|

|--------------------------------------------------------------|
|--------------------------------------------------------------|
|--------------------------------------------------------------|
|-------0-----0-----0-----0-----0-----0----------0-------------|
|--------------------------------------------h2---------0------|
|----0-----0-----0-----0-----0-----0-----0----------0----------|

|----------------------------------------------------------------------------------|
|----------------------------------------------------------------------------------|
|----------------------------------------------------------------------------------|
|-------0-----0-----0-----0-----0-----0-----5-----5-----4-----4-----0-----0--------|
|----------------------------------------------------------------------------------|
|----0-----0-----0-----0-----0-----0-----0-----0-----0-----0-----0-----0-----------|

|----------------------------------------------------------------------------------|
|----------------------------------------------------------------------------------|
|----------------------------------------------------------------------------------|
|-------0-----0-----5-----5-----4-----4-----0-----0----------0---------------------|
|--------------------------------------------------------h2---------0--------------|
|----0-----0-----0-----0-----0-----0-----0-----0-----0----------0------------------|



Chorus:

|----------------------------------------------------------------------------------|
|----------------------------------------------------------------------------------|
|----------------------------------------------------------------------------------|
|-------0-----0-----0-----0-----0-----0-----7-----7-----7-----7-----5-----5--------|
|----------------------------------------------------------------------------------|
|----0-----0-----0-----0-----0-----0-----0-----0-----0-----0-----0-----0-----------|

|----------------------------------------------------------------------------------|
|----------------------------------------------------------------------------------|
|----------------------------------------------------------------------------------|
|-------0-----0-----4-----4-----4-----4-----9-----9-----7-----7-----12-----12------|
|----------------------------------------------------------------------------------|
|----0-----0-----0-----0-----0-----0-----0-----0-----0-----0-----0-----0-----------|

|----------------------------------------------------------------------------------|
|----------------------------------------------------------------------------------|
|----------------------------------------------------------------------------------|
|-------0-----0-----4-----4-----4-----4-----5-----5-----4-----4-----2-----2--------|
|----------------------------------------------------------------------------------|
|----0-----0-----0-----0-----0-----0-----0-----0-----0-----0-----0-----0-----------|

|-------------------------------------------|
|-------------------------------------------|
|-------------------------------------------|
|-------0-----0--------0-----0-----0--------|
|----------------------2-----0-----5--------|
|----0-----0-----0-----0-----0-----0--------|


Bridge:

|-------------------------------------------------------------------------------|
|-------------------------------------------------------------------------------|
|-------------------------------------------------------------------------------|
|-------0-----0-----0-----0-----0-----0--------0-----0-----0-----0-----0--------|
|-----------------------------------------------2-----0-----5-----0-----0-------|
|----0-----0-----0-----0-----0-----0-----0-----0-----0-----0-----0-----0--------|

|-----------------------------------------------------------------------------------|
|-----------------------------------------------------------------------------------|
|-----------------------------------------------------------------------------------|
|-------0-----0-----0-----0-----0-----0--------0-----0----0----0----0----0----0-----|
|-----------------------------------------------2-----0----5----0----9---10----0----|
|----0-----0-----0-----0-----0-----0-----0-----0-----0----0----0----0----0----0-----|    

Added On December 16th, 2013

SHARE

Comments

blog comments powered by Disqus

ADVERTISEMENT