Mumford And Sons Tabs

You Aint No Sailor

1 versions

TAB

            Tabbed from: http://www.youtube.com/watch?v=V78e_S7VPKw

Standard Tuning - EADGBE
Capo: 5th Fret

Intro/Verse (in song when you get to second verse you strum this pattern)

|-5----5----2----2----3----3----2----0-2-3--5----5----3----3----2-|
|--3----3----3----3----3----3----3-----------3----3----3----3-----|
|---2----2----2----2----2----2----2-----------2----2----2----2----|
|-----------------------------------------------------------------|
|-----------------------------------------------------------------|
|-----------------------------------------------------------------|

What is actually strummed starting 2nd Verse:

|-5-|-2-|-3-|-2-|  |-0-|-2-|-3-|  |-5-|-2-|-2h3-|-2-|
|-3-|-3-|-3-|-3-|  |-3-|-3-|-3-|  |-3-|-3-|-3---|-3-|
|-2-|-2-|-2-|-2-|  |-2-|-2-|-2-|  |-0-|-0-|-0---|-0-|
|-0-|-0-|-0-|-0-|  |-0-|-0-|-0-|  |-0-|-0-|-0---|-0-|
|-0-|-0-|-0-|-0-|  |-0-|-0-|-0-|  |-2-|-2-|-2---|-2-|
|-x-|-x-|-x-|-x-|  |-x-|-x-|-x-|  |-x-|-x-|-x---|-x-|
(multiple strums)  one stum each   multiple strums


Now for the "But my heart" and "Will I praise again" parts (strumming):

|-5-|                |-3-|
|-3-|                |-0-|
|-0-|                |-0-|
|-4-|                |-0-|
|-2-|                |-0-|
|-x-|                |-3-|
"Will I"              "again"
"But my heart"        "mind don't agree"


Kate wasn't in to moderation
That's what led to her frustration
With the state of her crumbling heart
She'd say "I'm not a girl for temperance,
Though I know it's at my heart's expense
But a downward spiral has to have a rock bottom.

She painted the walls with blue and green
She'd sing about her lovers and dreams and
Explain her hopeless desperation
Take off your shoes unravel your blues
This place is full of beggars and choosers
But the consequence of her liberty is bad

But my heart wants to go one way my mind don't agree
Cause they, they have fallen out recently

"Know thy self" she said as she guarded me round 
The land of the dead
Introducing her friend stuck in the same mess
Ships might be built for sailing, my love, an easel's made for painting
But you ain't no sailor and I'll never be Camesi

My hear wants to go one way my mind don't agree
Cause they, they have fallen out recently
Well she said
"will I praise again? Oh will I praise again?"

Cause my heart wants to go on where my mind don't agree
And they, they have fallen out recently
Well she said,
"Oh will I praise again?"
"Oh will I praise again?"
"Will I, will I sing again?"

"Will I, praise again?"    

Added On December 16th, 2013

SHARE

Comments

blog comments powered by Disqus

ADVERTISEMENT