Muse Tabs

Apocalypse Please

6 versions

TAB

            Apocalypse Please Tab by Muse


Band - Muse
Song - Apocalypse Please

D#-------------------------------------|
A#-------------------------------------|
F#---3---3---3---3---2---2---2---2-----|
C#---1---1---1---1---0---0---0---0-----|
G#---1-1---1---1---1-0-0---0---0---0---|
C#---1-1---1---1---1-0-0---0---0---0---|

D#-------------------------------------|
A#-------------------------------------|
F#-------------------------------------|
C#---5-5-5-5-5-5-5-5-7-7-7-7-7-7-7-7---|
G#---5-5-5-5-5-5-5-5-5-5-5-5-5-5-5-5---|
C#---5-5-5-5-5-5-5-5-0-0-0-0-0-0-0-0---|

D#-------------------------------------|
A#-------------------------------------|
F#-------------------------------------|
C#---5-5-5-5-5-5-5-5-5-5-5-5-5-5-5-5---|
G#---5-5-5-5-5-5-5-5-5-5-5-5-5-5-5-5---|
C#---5-5-5-5-5-5-5-5-5-5-5-5-5-5-5-5---|

D#-------------------------------------|
A#-------------------------------------|
F#-------------------------------------|
C#---4-4-4-4-4-4-4-4-4-4-4-4-4-4-4-4---|
G#---4-4-4-4-4-4-4-4-4-4-4-4-4-4-4-4---|
C#---4-4-4-4-4-4-4-4-4-4-4-4-4-4-4-4---|

D#-----------------------------------------------------|
A#-----------------------------------------------------|
F#-----------------------------------------------------|
C#---12-12-12-12-12-12-12-12-12-12-12-12-12-12-12-12---|
G#---12-12-12-12-12-12-12-12-12-12-12-12-12-12-12-12---|
C#---12-12-12-12-12-12-12-12-11-11-11-11-11-11-11-11---|

D#-----------------------------------------------------|
A#-----------------------------------------------------|
F#-----------------------------------------------------|
C#---12-12-12-12-12-12-12-12-12-12-12-12-12-12-12-12---|
G#---12-12-12-12-12-12-12-12-12-12-12-12-12-12-12-12---|
C#---12-12-12-12-12-12-12-12-12-12-12-12-12-12-12-12---|    

Added On December 5th, 2013

SHARE

Comments

blog comments powered by Disqus