Mushroomhead Tabs

Dream Is Over

2 versions

TAB

            Dream Is Over Tab by Mushroomhead


The Dream Is Over by Mushroomhead
Tabbed by: 2 Fisted
Tuning 7 string standard AEADGBe (7 string not needed though)

Main Riff
---------------|
---------------|
---------------|
---------------|
-2-2--2-2-xx---|
-2-2--2-2-xx---|
-2-2--2-2-xx---|

Verse(play the first part on the first time through only)
------| -----------------|
------| -----------------|
------| -----------------|
------| -----------------|
-1111-| -1111-11111111---|
-1111-| -1111-11111111---|
-1111-| -1111-11111111---|
 ....    .... ........
Chorus
-----------------|
-----------------|
-----------------|
-------------2---|
-2222-2222-2-2---|
-2222-2222-2-0---|
-2222-2222-2-----|
 .... .... .
Fill
--------------|
--------------|
--------------|
--------------|
--------------|
--------------|
-2-2--2-2-xx--|

-main riff
-verse
-chorus

Interlude 1
-------------------------|
-------------------------|
-------------------------|
-------------------------|
-0-0-0-9-0-0-8-0-0-7-0-3-|
-0-0-0-9-0-0-8-0-0-7-0-3-|
-0-0-0-9-0-0-8-0-0-7-0-3-|
 . . .   . .   . .   . .

Interlude 2 is Interlude 1 without PMs on zeros.

-Fill
-verse
-main riff

End on:
---------|
---------|
---------|
---------|
-0-0-2---|
-0-0-2---|
-0-0-2---|
 . .    

Added On December 5th, 2013

SHARE

Comments

blog comments powered by Disqus

VERSIONS

ADVERTISEMENT