My American Heart Tabs

Dont Sleep

2 versions

TAB

            -----------------------------------------------------------------------------------
			     Don't Sleep - My American Heart
-----------------------------------------------------------------------------------
Tabbed by:heyitsthemokid

Tuning:Drop D

Intro:
e|------------------------------------------------------------------------|
B|------------------------------------------------------------------------|
G|------------------------------------------------------------------------|
D|0244--4444--44--77--4--44--44--4444--44--77--44-0--000-14--00-13-00-14--|
A|0244--7777--44--44--4--77--44--7777--44--44--44-0--000-x---00-x--00-x---|
D|0244--4444--44--44--4--44--44--4444--44--44--44-0--000-12--00-11-00-12--|
                                                     ...      ..   ..
e|------------------|
B|------------------|
G|-----14-----------|
D|000--x--0000000---|
A|000--12-0000000---|
D|000-----0000000---|
  ...     .......

Verse: 2x
e|--------------------------------------------------------------------------|
B|--------------------------------------------------------------------------|
G|--------------------------------------------------------------------------|
D|4444444--000--222--4444444--000--222--4444444--777--000--4444444--777--000|
A|4444444--000--222--4444444--000—-222--4444444--777--000--4444444--777--000|
D|4444444--000--222—-4444444—-000—-222--4444444--777--000--4444444—-777--000|

Chorus:
e|---------------------------------------------------------------------|
B|---------------------------------------------------------------------|
G|-----------------------------------14----13-----------14----13-------|
D|4-xxxx-44-44-44-xxxx-444-xx-x-0-xx-x--xx-x--xx-999-xx-x--xx-x--xx-999|
A|4-xxxx-44-44-44-xxxx-444-xx-x-0-xx-12-xx-11-xx-777-xx-12-xx-11-xx-777|
D|4-xxxx-44-44-44-xxxx-444-xx-x-0-xx----xx----xx-----xx----xx----xx----|
						
e|---------------------------------------------------------------------|
B|---------------------------------------------------------------------|
G|-----------------------------------14----13-----------14----13-------|
D|4-xxxx-44-44-44-xxxx-444-xx-x-0-xx-x--xx-x--xx-999-xx-x--xx-x--xx-999|
A|4-xxxx-44-44-44-xxxx-444-xx-x-0-xx-12-xx-11-xx-777-xx-12-xx-11-xx-777|
D|4-xxxx-44-44-44-xxxx-444-xx-x-0-xx----xx----xx-----xx----xx----xx----|

e|--------------------------------------------------------------------------------|
B|--------------------------------------------------------------------------------|
G|-----------------------------------------------------------------14----13-------|	
D|444-2-2424-444-2-222-2-44-4444-44-77-4-44-44-4444-44-77-44-0-000-x--00-x--00-999|
A|444-2-2424-444-2-222-2-44-7777-44-44-4-77-44-7777-44-44-44-0-000-12-00-11-00-777|
D|444-2-2424-444-2-222-2-44-4444-44-44-4-44-44-4444-44-44-44-0-000----00----00----|
		   ...					 ...    ..    ..

Verse: 2x
e|--------------------------------------------------------------------------|
B|--------------------------------------------------------------------------|
G|--------------------------------------------------------------------------|
D|4444444--000--222--4444444--000--222--4444444--777--000--4444444--777--000|
A|4444444--000--222--4444444--000—-222--4444444--777--000--4444444--777--000|
D|4444444--000--222—-4444444—-000—-222--4444444--777--000--4444444—-777--000|

well this is most of it. 

| .  palm mute
| /  slide up
| \  slide down
| h  hammer-on
| p  pull-off
| ~  vibrato
| +  harmonic
| x  Mute note
===================================================================================    

Added On December 16th, 2013

SHARE

Comments

blog comments powered by Disqus

VERSIONS

ADVERTISEMENT