My American Heart Tabs

This Wont Stop

1 versions

TAB

            This Wont Stop Tab by My American Heart


~ = hold.
-x- = scratch.
/ = slide.
x = palm mute.
> = continue playing chord.
. = bend.
p = pull.

I learned this by ear dude. "pretty impresive Adrian!" says some chick.
"thanx." says adrian "i was bored over summer break so i decided id learn this song. so, 
He explains
"Adran, you arouse me." "Do me. Do me NOW!" Replies that one chick that i told you about earlier
Adrian and The Aroused Chick start making out then they get it on in her parents room. 
End. DO you like my story guys? Its true. All because of my amazing, song learning ears. 
enjoy.

                                                            -Adrian


INTRO:
 (guitar 1)
e|----------------------------------------------------------------------------------|
B|----------------------------------------------------------------------------------|
G|------10p/0-----------------10p/0-9p/0-----------10p/0--------9-9-----------------|
D|-7-7---------8p/0-7p/0--7-7------------8p/0--7-7--------8p/0--7-7--7--777-7-7-----|
A|-7-7--------------------7-7------------------7-7--------------8-8--8--888-8-8-----|
d|-7-7--------------------7-7------------------7-7--------------0-0--0--000-0-0-----|
                                                                     x  xxx x x

e|-----------------------------------------------------------------------------------|
B|-----------------------------------------------------------------------------------|
G|------10p/0-----------------10p/0-9p/0-----------10p/0-----------------------------|
D|-7-7---------8p/0-7p/0--7-7------------8p/0--7-7-------8p/0-7p/0-7777777777777777--|
A|-7-7--------------------7-7------------------7-7-----------------8888888888888888--|
d|-7-7--------------------7-7------------------7-7-----------------0000000000000000--|
                                                                   xxxxxxxxxxxxxxxx
 (guitar 2)
e|-----x-x-x-x-x-x-----x-x-x-x-x-x-----x-x-x-x-x-x-----------------------------------|
B|-----x-x-x-x-x-x-----x-x-x-x-x-x-----x-x-x-x-x-x-----------------------------------|
G|-----x-x-x-x-x-x-----x-x-x-x-x-x-----x-x-x-x-x-x-----------------------------------|
D|-7-7-x-x-x-x-x-x-7-7-x-x-x-x-x-x-7-7-x-x-x-x-x-x--0-0--0--000-0-0------------------|
A|-7-7-x-x-x-x-x-x-7-7-x-x-x-x-x-x-7-7-x-x-x-x-x-x--0-0--0--000-0-0------------------|
d|-7-7-x-x-x-x-x-x-7-7-x-x-x-x-x-x-7-7-x-x-x-x-x-x--0-0--0--000-0-0------------------|
                                                         x  xxx x x

e|-----x-x-x-x-x-x-----x-x-x-x-x-x-----x-x-x-x-x-x-----------------------------------|
B|-----x-x-x-x-x-x-----x-x-x-x-x-x-----x-x-x-x-x-x-----------------------------------|
G|-----x-x-x-x-x-x-----x-x-x-x-x-x-----x-x-x-x-x-x-----------------------------------|
D|-7-7-x-x-x-x-x-x-7-7-x-x-x-x-x-x-7-7-x-x-x-x-x-x--0000000000000000-----------------|
A|-7-7-x-x-x-x-x-x-7-7-x-x-x-x-x-x-7-7-x-x-x-x-x-x--0000000000000000-----------------|
d|-7-7-x-x-x-x-x-x-7-7-x-x-x-x-x-x-7-7-x-x-x-x-x-x--0000000000000000-----------------|
                                                    xxxxxxxxxxxxxxxx

VERSE:
 (guitar 1)
e|-----------------------------------------------------------------------------------|
B|-----------------------------------------------------------------------------------|
G|----9--9-9-9--9--9--9-9-9------9--9-9-9--9--9--9-9-9-------------------------------|
D|-7--7--7-7-7--7--7--7-7-7---7--7--7-7-7--7--7--7-7-7-------------------------------|
A|-7--7--7-7-7--7--7--7-7-7---8--8--8-8-8--8--8--8-8-8-------------------------------|
d|-7--7--7-7-7--7--7--7-7-7---0--0--0-0-0--0--0--0-0-0-------------------------------|

e|-----------------------------------------------------------------------------------|
B|-----------------------------------------------------------------------------------|
G|----5~---5-5-----7-7-7-7-7----5~---5-5---7-7---7-7---------------------------------|
D|-3------------5------------3-------------5-5---5-5---5-----------------------------|
A|-3------------5------------3-------------5-5---5-5---5-----------------------------|
d|-3------------5------------3-------------5-5---5-5---5-----------------------------|

e|-----------------------------------------------------------------------------------|
B|-----------------------------------------------------------------------------------|
G|----9--9-9-9--9--9--9-9-9------9--9-9-9--10-10-9-9-9-------------------------------|
D|-7--7--7-7-7--7--7--7-7-7---7--7--7-7-7--7--7--7-7-7-------------------------------|
A|-7--7--7-7-7--7--7--7-7-7---8--8--8-8-8--8--8--8-8-8-------------------------------|
d|-7--7--7-7-7--7--7--7-7-7---0--0--0-0-0--0--0--0-0-0-------------------------------|

e|-----------------------------------------------------------------------------------|
B|-----------------------------------------------------------------------------------|
G|----5~---5-5-----7--5p/0------5~---5-5---------------------------------------------|
D|-3------------5------------3-------------------------------------------------------|
A|-3------------5------------3------------7--777-7-7---------------------------------|
d|-3------------5------------3------------6--666-6-6---------------------------------|
                                          x  xxx x x

 (guitar 2)
e|-----------------------------------------------------------------------------------|
B|-----------------------------------------------------------------------------------|
G|-----------------------------------------------------------------------------------|
D|-7--7--7-7-7--7--7--7-7-7---0--0--0-0-0--0--0--0-0-0-------------------------------|
A|-7--7--7-7-7--7--7--7-7-7---0--0--0-0-0--0--0--0-0-0-------------------------------|
d|-7--7--7-7-7--7--7--7-7-7---0--0--0-0-0--0--0--0-0-0-------------------------------|

e|---x-x-x-x-x---x-x-x-x-x-----------------------------------------------------------|
B|---x-x-x-x-x---x-x-x-x-x-----------------------------------------------------------|
G|---x-x-x-x-x---x-x-x-x-x----5/7~--7-7----------------------------------------------|
D|-3-x-x-x-x-x-5-x-x-x-x-x-3-------------5-5---5-5--5--------------------------------|
A|-3-x-x-x-x-x-5-x-x-x-x-x-3-------------5-5---5-5--5--------------------------------|
d|-3-x-x-x-x-x-5-x-x-x-x-x-3-------------5-5---5-5--5--------------------------------|

e|-----------------------------------------------------------------------------------|
B|---8p/0---------------8p/0--------------8p/0---------------------------------------|
G|----------9p/0-7p/0----------7/9/7p/0----------9p/0-7p/0--9.--7/9p/0---------------|
D|-7------7-----------7------7----------7------7-------------------------------------|
A|-----------------------------------------------------------------------------------|
d|-----------------------------------------------------------------------------------|

e|---x-x-x-x-x---x-x-x-x-x---x-x-x-x-x-----------------------------------------------|
B|---x-x-x-x-x---x-x-x-x-x---x-x-x-x-x-----------------------------------------------|
G|---x-x-x-x-x---x-x-x-x-x---x-x-x-x-x-----------------------------------------------|
D|-3-x-x-x-x-x-5-x-x-x-x-x-3-x-x-x-x-x-----------------------------------------------|
A|-3-x-x-x-x-x-5-x-x-x-x-x-3-x-x-x-x-x---7--777-7-7----------------------------------|
d|-3-x-x-x-x-x-5-x-x-x-x-x-3-x-x-x-x-x---6--666-6-6----------------------------------|
                                         x  xxx x    

Added On December 5th, 2013

SHARE

Comments

blog comments powered by Disqus

ADVERTISEMENT