My Chemical Romance Tabs

Famous Last Words

4 versions

TAB

            ----------------------------------------------------------------------------
	   Famous Last Words - My Chemical Romance
----------------------------------------------------------------------------



 

 
Gtr I (E A D G B E) - 'Ray'
Gtr II (E A D G B E) - 'Frank'
Gtr III (E A D G B E) - 'Extra'
Gtr IV (E A D G B E) - 'Extra'





I tried to make this look the most professionally and neatly done and organized as I could. 

Thank you.





 Intro:

  Gtrs I, II

|------------------|-----------------|
|------------------|-----------------|
|-7-7--------------|-----------------|
|-7-7--------------|-----------------|
|-5-5--------------|-----------------|
|------------------|-----------------|
|
| Gtr III
|     PM----------------------------|
| 
|------------------|-----------------|
|-6-6--------------|-----------------|
|-7-7--------------|-----------------|
|-7-7-7--7-7-7-7-7-|-7-7-7-7-5-5-5-5-|
|-5-5-5--5-5-5-5-5-|-5-5-5-5-3-3-3-3-|
|------------------|-----------------|


  
 PM---------------------------------------|
 
|-----------------|-------------------------|
|-----------------|-------------------------|
|-----------------|-------------------------|
|-3-3-3-3-3-3-3-3-|-3-3-3-3--3---3---3---3--|
|-1-1-1-1-1-1-1-1-|-1-1-1-1--0---0---0---0--|
|-----------------|-------------------------|




  PM----------------------------------------------------------------------|
 
|-----------------|---------------------|-----------------|----------------|
|-----------------|---------------------|-----------------|----------------|
|-5-5-5-5-3-3-3-3-|---------------------|-----------------|----------------|
|-5-5-5-5-5-5-5-5-|---------------------|-----------------|----------------|
|-5-5-5-5-5-5-5-5-|-7-7-7-7-10-10-10-10-|-8-8-8-8-8-8-8-8-|-8-8-8-8-7-7-7-7|
|-3-3-3-3-3-3-3-3-|-5-5-5-5--5--5--5--5-|-6-6-6-6-6-6-6-6-|-8-8-8-8-8-8-8-8|


  
|------------------|-----------------|------------------|-----------------|
|------------------|-----------------|------------------|-----------------|
|-7-7--------------|-----------------|-3-3--------------|-----------------|
|-7-7--------------|-----------------|-3-3--------------|-----------------|
|-5-5--------------|-----------------|-1-1--------------|-----------------|
|------------------|-----------------|------------------|-----------------|
|
|     PM----------------------------------------------------------------|
| 
|------------------|-----------------|------------------|-----------------|
|------------------|-----------------|------------------|-----------------|
|-7-7--------------|-----------------|------------------|-----------------|
|-7-7-7--7-7-7-7-7-|-7-7-7-7-5-5-5-5-|-3-3-3--3-3-3-3-3-|-3-3-3-3-3-3-3-3-|
|-5-5-5--5-5-5-5-5-|-5-5-5-5-3-3-3-3-|-1-1-1--1-1-1-1-1-|-1-1-1-1-0-0-0-0-|
|------------------|-----------------|------------------|-----------------|


|------------------|
|------------------|
|------------------|
|-5-5--------------|
|-5-5--------------|
|-3-3--------------|
|
| PM-----------------------------------|
| 
|------------------|---------------------|
|------------------|---------------------|
|-5-5-5--5-3-3-3-3-|---------------------|
|-5-5-5--5-5-5-5-5-|---------------------|
|-5-5-5--5-5-5-5-5-|-7-7-7-7-10-10-10-10-|
|-3-3-3--3-3-3-3-3-|-5-5-5-5--5--5--5--5-|


      PM---------------------------|

|-----------------|-------------------------|
|-----------------|-------------------------|
|-----------------|-------------------------|
|-8-8-------------|-10-10-10-10-10-10-10-10-|
|-8-8-8-8-8-8-8-8-|-10-10-10-10-10-10-10-10-|
|-6-6-6-6-6-6-6-6-|--8--8--8--8--8--8--8--8-|
|
|PM--------------------------------|
| 
|-----------------|-------------------------|
|-----------------|-------------------------|
|-----------------|-------------------------|
|-----------------|-10-10-10-10-10-10-10-10-|
|-8-8-8-8-8-8-8-8-|-10-10-10-10-10-10-10-10-|
|-6-6-6-6-6-6-6-6-|--8--8--8--8--8--8--8--8-|


 Pre-Verse
 
|------------------|-----------------------|
|------------------|-----------------------|
|-7-7--------------|-----------------------|
|-7-7--------3-----|------------3-5pb5-5r3-|
|-5-5-5--3-5---5-3-|-5-5-5--3-5------------|
|------------------|-----------------------|
|
| 
|------------------|-----------------------|
|------------------|-----------------------|
|-7-7--------------|-7-7-------------------|
|-7-7--------------|-7-7-------------------|
|-5-5--------------|-5-5-------------------|
|------------------|-----------------------|


                                        
                                       PM--------|
|--------------------------------|-----------------|
|--------------------------------|-----------------|
|--------------------------------|-7-7-------------|
|--------------------3-----------|-7-7-7-7-7-7-7-7-|
|-5-5---5---3----5--------5---3--|-5-5-5-5-5-5-5-5-|
|--------------------------------|-----------------|
|
|                                      PM--------|
|
|--------------------------------|-----------------|
|--------------------------------|-----------------|
|-7-7----------------------------|-7-7-------------|
|-7-7----------------3-----------|-7-7-7-7-7-7-7-7-|
|-5-5---5---3----5--------5---3--|-5-5-5-5-5-5-5-5-|
|--------------------------------|-----------------|


 Verse 1:
  
|-----------------|-------------------------|
|-----------------|-------------------------|
|-7-7-7-7-7-7-7-7-|--7--7--7--7-------------|
|-7-7-7-7-7-7-7-7-|--7--7--7--7-10-10-10-10-|
|-5-5-5-5-5-5-5-5-|--5--5--5--5-10-10-10-10-|
|-----------------|--------------8--8--8--8-|
|
|
|-----------------|-------------------------|
|-----------------|-------------------------|
|-7-7-7-7-7-7-7-7-|-10-10-10-10--9--9--9--9-|
|-----------------|-------------------------|
|-5-5-5-5-5-5-5-5-|--8--8--8--8--7--7--7--7-|
|-----------------|-------------------------|



|-----------------|---------------------|
|-----------------|---------------------|
|-----------------|---------------------|
|-8-8-8-8-8-8-8-8-|--8--8--8--8-7-7-7-7-|
|-8-8-8-8-8-8-8-8-|--8--8--8--8-7-7-7-7-|
|-6-6-6-6-6-6-6-6-|--6--6--6--6-5-5-5-5-|
|
| 
|-----------------|---------------------|
|-----------------|---------------------|
|-7-7-7-7-7-7-7-7-|-10-10-10-10-9-9-9-9-|
|-----------------|---------------------|
|-5-5-5-5-5-5-5-5-|--8--8--8--8-7-7-7-7-|
|-----------------|---------------------|


  
|-----------------|-----------------|
|-----------------|-----------------|
|-----------------|-----------------|
|-5-5-5-5-5-5-5-5-|-7-7-7-7-7-7-7-7-|
|-5-5-5-5-5-5-5-5-|-7-7-7-7-7-7-7-7-|
|-3-3-3-3-3-3-3-3-|-5-5-5-5-5-5-5-5-|
|
| 
|-----------------|-----------------|
|-----------------|-----------------|
|-7-7-7-7-7-7-7-7-|-5-5-5-5-9-9-9-9-|
|-----------------|-----------------|
|-5-5-5-5-5-5-5-5-|-3-3-3-3-7-7-7-7-|
|-----------------|-----------------|



|-----------------|-------------------------|
|-----------------|-------------------------|
|-----------------|-------------------------|
|-8-8-8-8-8-8-8-8-|-10-10-10-10-10-10-10-10-|
|-8-8-8-8-8-8-8-8-|-10-10-10-10-10-10-10-10-|
|-6-6-6-6-6-6-6-6-|--8--8--8--8--8--8--8--8-|
|
|
|-----------------|-------------------------|
|-----------------|-------------------------|
|-7-7-7-7-7-7-7-7-|-10-10-10-10--9--9--9--9-|
|-----------------|-------------------------|
|-5-5-5-5-5-5-5-5-|--8--8--8--8--7--7--7--7-|
|-----------------|-------------------------|


  
|-----------------|-------------------------|
|-----------------|-------------------------|
|-7-7-7-7-7-7-7-7-|--7--7--7--7-------------|
|-7-7-7-7-7-7-7-7-|--7--7--7--7-10-10-10-10-|
|-5-5-5-5-5-5-5-5-|--5--5--5--5-10-10-10-10-|
|-----------------|--------------8--8--8--8-|
|
| 
|-----------------|-------------------------|
|-----------------|-------------------------|
|-7-7-7-7-7-7-7-7-|-10-10-10-10--9--9--9--9-|
|-----------------|-------------------------|
|-5-5-5-5-5-5-5-5-|--8--8--8--8--7--7--7--7-|
|-----------------|-------------------------|


  
|-----------------|-------------------------|
|-----------------|-------------------------|
|-----------------|-------------------------|
|-8-8-8-8-8-8-8-8-|--8--8--8--8--7--7--7--7-|
|-8-8-8-8-8-8-8-8-|--8--8--8--8--7--7--7--7-|
|-6-6-6-6-6-6-6-6-|--6--6--6--6--5--5--5--5-|
|
| 
|-----------------|-------------------------|
|-----------------|-------------------------|
|-7-7-7-7-7-7-7-7-|-10-10-10-10-12-12-12-12-|
|-----------------|-------------------------|
|-5-5-5-5-5-5-5-5-|--8--8--8--8-10-10-10-10-|
|-----------------|-------------------------|


  
|-----------------|-----------------|--------------------|----------------|
|-----------------|-----------------|--------------------|----------------|
|-----------------|-----------------|--------------------|----------------|
|-5-5-5-5-5-5-5-5-|-7-7-7-7-7-7-7-7-|--8--8--8-8-8-8-8-8-|-10-10-10-10-10-|
|-5-5-5-5-5-5-5-5-|-7-7-7-7-7-7-7-7-|--8--8--8-8-8-8-8-8-|-10-10-10-10-10-|
|-3-3-3-3-3-3-3-3-|-5-5-5-5-5-5-5-5-|--6--6--6-6-6-6-6-6-|--8--8--8--8--8-|
|
| 
|-----------------|-----------------|--------------------|-----------------|
|-----------------|-----------------|--------------------|-----------------|
|-7-7-7-7-7-7-7-7-|-5-5-5-5-9-9-9-9-|-10-10-10-9-9-9-5-5-|--5--5--5--5--5--|
|-----------------|-----------------|--------------------|-----------------|
|-5-5-5-5-5-5-5-5-|-3-3-3-3-7-7-7-7-|--8--8--8-7-7-7-3-3-|--3--3--3--3--3--|
|-----------------|-----------------|--------------------|-----------------|


 Chorus:
   
|-------------------------|-------------------------|
|-------------------------|-------------------------|
|-14-14-14-14-14-14-14-14-|-14-14-14-14-12-12-10-10-|
|-------------------------|-------------------------|
|-12-12-12-12-12-12-12-12-|-12-12-12-12-10-10--8--8-|
|-------------------------|-------------------------|
|
|  
|-------------------------|-------------------------|
|-------------------------|-------------------------|
|-10-10-10-10-10-10-10-10-|-10-10-10-10--9--9--9--9-|
|-10-10-10-10-10-10-10-10-|-10-10-10-10-10-10-10-10-|
|--8--8--8--8--8--8--8--8-|--8--8--8--8--7--7--7--7-|
|-------------------------|-------------------------|


   
|-------------------------|-------------------------|
|-------------------------|-------------------------|
|-14-14-14-14-14-14-14-14-|-14-14-14-14-12-12-10-10-|
|-------------------------|-------------------------|
|-12-12-12-12-12-12-12-12-|-12-12-12-12-10-10--8--8-|
|-------------------------|-------------------------|
|
|  
|-------------------------|-------------------------|
|-------------------------|-------------------------|
|--7--7--7--7--7--7--7--7-|--7--7--7--7-------------|
|--7--7--7--7--7--7--7--7-|--7--7--7--7--7--7--7--7-|
|--5--5--5--5--5--5--5--5-|--5--5--5--5--7--7--7--7-|
|-------------------------|--------------5--5--5--5-|


   
|-----------------------------------------|-------------------------|
|-(13)-(13)-(13)-(13)-(13)-(13)-(13)-(13)-|-------------------------|
|--10---10---10---10---10---10---10---10--|-12-12-12-12-12-12-12-12-|
|-----------------------------------------|-------------------------|
|---8----8----8----8----8----8----8----8--|-10-10-10-10-10-10-10-10-|
|-----------------------------------------|-------------------------|
|
|  
|-----------------------------------------|-------------------------|
|-----------------------------------------|-------------------------|
|-----------------------------------------|-------------------------|
|---8----8----8----8----8----8----8----8--|-10-10-10-10-10-10-10-10-|
|---8----8----8----8----8----8----8----8--|-10-10-10-10-10-10-10-10-|
|---6----6----6----6----6----6----6----6--|--8--8--8--8--8--8--8--8-|



|---------------------|-------------------------|
|---------------------|-------------------------|
|-10-10-10-10-9-9-9-9-|--5--5--5--5--5--5--5--5-|
|---------------------|-------------------------|
|--8--8--8--8-7-7-7-7-|--3--3--3--3--3--3--3--3-|
|---------------------|-------------------------|
|
| 
|---------------------|-------------------------|
|---------------------|-------------------------|
|---------------------|-------------------------|
|--5--5--5--5-5-5-5-5-|-10-10-10-10-10-10-10-10-|
|--5--5--5--5-5-5-5-5-|-10-10-10-10-10-10-10-10-|
|--3--3--3--3-3-3-3-3-|--8--8--8--8--8--8--8--8-|




 Verse 2:

  Gtr I
                                
   
|-------------------------------|-------------------------|
|-------------------------------|-------------------------|
|----------------10pb10-5r------|----------------10-------|
|-12-12-12-10-12----------12-10-|-12-12-12-10-12----12-10-|
|-------------------------------|-------------------------|
|-------------------------------|-------------------------|
|
|
| Gtr II
|
|----------------13-------------|----------------13-------|
|-15-15-15-13-15----------15-13-|-15-15-15-13-15----15-13-|
|-------------------------------|-------------------------|
|-------------------------------|-------------------------|
|-------------------------------|-------------------------|
|-------------------------------|-------------------------|
|
| Gtr III
| 
|-------------------------------|-------------------------|
|-------------------------------|-------------------------|
|--7--7--7--7--7--7--------7--7-|--7--7--7--7-------------|
|--7--7--7--7--7--7--------7--7-|--7--7--7--7-10-10-10-10-|
|--5--5--5--5--5--5--------5--5-|--5--5--5--5-10-10-10-10-|
|-------------------------------|--------------8--8--8--8-|


                  
  
|-------------------------------|-------------------------|
|-------------------------------|-------------------------|
|----------------10pb10-5r------|----------------10-------|
|-12-12-12-10-12----------12-10-|-12-12-12-10-12----12-10-|
|-------------------------------|-------------------------|
|-------------------------------|-------------------------|
|
|                              
|  
|----------------13-------------|----------------13-------|
|-15-15-15-13-15----------15-13-|-15-15-15-13-15----15-13-|
|-------------------------------|-------------------------|
|-------------------------------|-------------------------|
|-------------------------------|-------------------------|
|-------------------------------|-------------------------|
|
|  
|-------------------------------|-------------------------|
|-------------------------------|-------------------------|
|-------------------------------|-------------------------|
|--8--8--8--8--8--8--------8--8-|--8--8--8--8--7--7--7--7-|
|--8--8--8--8--8--8--------8--8-|--8--8--8--8--7--7--7--7-|
|--6--6--6--6--6--6--------6--6-|--6--6--6--6--5--5--5--5-|


  
|-------------------------------|-------------------------|
|-------------------------------|-------------------------|
|----------------10pb10-5r------|--9--9--9--9--9--9--9--9-|
|-12-12-12-10-12----------12-10-|-------------------------|
|-------------------------------|-------------------------|
|-------------------------------|-------------------------|
|
|                 
|  
|----------------13pb13-5r------|-------------------------|
|-15-15-15-13-15----------15-13-|-17-17-17-17-17-17-17-17-|
|-------------------------------|-------------------------|
|-------------------------------|-------------------------|
|-------------------------------|-------------------------|
|-------------------------------|-------------------------|
|
| 
|-------------------------------|-------------------------|
|-------------------------------|-------------------------|
|-------------------------------|-------------------------|
|--5--5--5--5--5--5--------5--5-|--7--7--7--7--7--7--7--7-|
|--5--5--5--5--5--5--------5--5-|--7--7--7--7--7--7--7--7-|
|--3--3--3--3--3--3--------3--3-|--5--5--5--5--5--5--5--5-|


                       
 
|-------------------------|-------------------------------|
|-------------------------|-------------------------------|
|-10-10-10--9--9--9-------|----10pb10-5r------------------|
|-------------------10-10-|-12----------12-10-12-10----10-|
|-------------------------|-------------------------12----|
|-------------------------|-------------------------------|
|
| 
|-------------------------|-------------------------------|
|-18-18-18-17-17-17-13-13-|-17-17-------17-17-17-17-17-17-|
|-------------------------|-------------------------------|
|-------------------------|-------------------------------|
|-------------------------|-------------------------------|
|-------------------------|-------------------------------|
|
|  
|-------------------------|-------------------------------|
|-------------------------|-------------------------------|
|-------------------------|-------------------------------|
|--8--8--8--8--8--8--8--8-|-10-10-------10-10-10-10-10-10-|
|--8--8--8--8--8--8--8--8-|-10-10-------10-10-10-10-10-10-|
|--6--6--6--6--6--6--6--6-|--8--8--------8--8--8--8--8--8-|


                               
  
|-------------------------------|-------------------------|
|-------------------------------|-------------------------|
|----------------10pb10-5r------|----------------10-------|
|-12-12-12-10-12----------12-10-|-12-12-12-10-12----12-10-|
|-------------------------------|-------------------------|
|-------------------------------|-------------------------|
|
|             
| 
|----------------13-------------|----------------13-------|
|-15-15-15-13-15----------15-13-|-15-15-15-13-15----15-13-|
|-------------------------------|-------------------------|
|-------------------------------|-------------------------|
|-------------------------------|-------------------------|
|-------------------------------|-------------------------|
|
|  
|-------------------------------|-------------------------|
|-------------------------------|-------------------------|
|--7--7--7--7--7--7--------7--7-|--7--7--7--7-------------|
|--7--7--7--7--7--7--------7--7-|--7--7--7--7-10-10-10-10-|
|--5--5--5--5--5--5--------5--5-|--5--5--5--5-10-10-10-10-|
|-------------------------------|--------------8--8--8--8-|


                                  

|-------------------------------|-------------------------|
|-------------------------------|-------------------------|
|----------------10pb10-5r------|----------------10-------|
|-12-12-12-10-12----------12-10-|-12-12-12-10-12----12-10-|
|-------------------------------|-------------------------|
|-------------------------------|-------------------------|
|
|                                      
|  
|----------------13-------------|----------------13-------|
|-15-15-15-13-15----------15-13-|-15-15-15-13-15----15-13-|
|-------------------------------|-------------------------|
|-------------------------------|-------------------------|
|-------------------------------|-------------------------|
|-------------------------------|-------------------------|
|
| 
|-------------------------------|-------------------------|
|-------------------------------|-------------------------|
|-------------------------------|-------------------------|
|--8--8--8--8--8--8--------8--8-|--8--8--8--8--7--7--7--7-|
|--8--8--8--8--8--8--------8--8-|--8--8--8--8--7--7--7--7-|
|--6--6--6--6--6--6--------6--6-|--6--6--6--6--5--5--5--5-|



|-------------------------------|-------------------------|
|-------------------------------|-------------------------|
|----------------10pb10-5r------|--9--9--9--7--9-10--9--7-|
|-12-12-12-10-12----------12-10-|-------------------------|
|-------------------------------|-------------------------|
|-------------------------------|-------------------------|
|
|                 
|  
|----------------13-------------|-12-12-12-12-12-12-12-12-|
|-15-15-15-13-15----------15-13-|-------------------------|
|-------------------------------|-------------------------|
|-------------------------------|-------------------------|
|-------------------------------|-------------------------|
|-------------------------------|-------------------------|
|
| 
|-------------------------------|-------------------------|
|-------------------------------|-------------------------|
|-------------------------------|-------------------------|
|--5--5--5--5--5--5--------5--5-|--7--7--7--7--7--7--7--7-|
|--5--5--5--5--5--5--------5--5-|--7--7--7--7--7--7--7--7-|
|--3--3--3--3--3--3--------3--3-|--5--5--5--5--5--5--5--5-|


  
|-------------------------|---------------------|
|-------------------------|---------------------|
|-10-10-10--9--9--9-------|---------------------|
|-------------------10-10-|-10-10-10-10-10------|
|-------------------------|---------------------|
|-------------------------|---------------------|
|
| 
|-13-13-13-12-12-12-------|---------------------|
|-------------------13-13-|-13-13-13-13-13------|
|-------------------------|---------------------|
|-------------------------|---------------------|
|-------------------------|---------------------|
|-------------------------|---------------------|
|
|
|-------------------------|---------------------|
|-------------------------|---------------------|
|-------------------------|---------------------|
|--8--8--8--8--8--8--8--8-|-10-10-10-10-10------|
|--8--8--8--8--8--8--8--8-|-10-10-10-10-10------|
|--6--6--6--6--6--6--6--6-|--8--8--8--8--8------|


 Chorus:
  Gtrs I, II
  
|-------------------------|-------------------------|
|-------------------------|-------------------------|
|-14-14-14-14-14-14-14-14-|-14-14-14-14-12-12-10-10-|
|-------------------------|-------------------------|
|-12-12-12-12-12-12-12-12-|-12-12-12-12-10-10--8--8-|
|-------------------------|-------------------------|
|
|
| Gtr III
| 
|-------------------------|-------------------------|
|-------------------------|-------------------------|
|-10-10-10-10-10-10-10-10-|-10-10-10-10--9--9--9--9-|
|-10-10-10-10-10-10-10-10-|-10-10-10-10-10-10-10-10-|
|--8--8--8--8--8--8--8--8-|--8--8--8--8--7--7--7--7-|
|-------------------------|-------------------------|


   
|-------------------------|-------------------------|
|-------------------------|-------------------------|
|-14-14-14-14-14-14-14-14-|-14-14-14-14-12-12-10-10-|
|-------------------------|-------------------------|
|-12-12-12-12-12-12-12-12-|-12-12-12-12-10-10--8--8-|
|-------------------------|-------------------------|
|
|  
|-------------------------|-------------------------|
|-------------------------|-------------------------|
|--7--7--7--7--7--7--7--7-|--7--7--7--7-------------|
|--7--7--7--7--7--7--7--7-|--7--7--7--7--7--7--7--7-|
|--5--5--5--5--5--5--5--5-|--5--5--5--5--7--7--7--7-|
|-------------------------|--------------5--5--5--5-|


|-----------------------------------------|-------------------------|
|-----------------------------------------|-------------------------|
|--10---10---10---10---10---10---10---10--|-12-12-12-12-12-12-12-12-|
|-----------------------------------------|-------------------------|
|---8----8----8----8----8----8----8----8--|-10-10-10-10-10-10-10-10-|
|-----------------------------------------|-------------------------|
|
|   
|-----------------------------------------|-------------------------|
|-----------------------------------------|-------------------------|
|-----------------------------------------|-------------------------|
|---8----8----8----8----8----8----8----8--|-10-10-10-10-10-10-10-10-|
|---8----8----8----8----8----8----8----8--|-10-10-10-10-10-10-10-10-|
|---6----6----6----6----6----6----6----6--|--8--8--8--8--8--8--8--8-|


   
|---------------------|-------------------------|
|---------------------|-------------------------|
|-10-10-10-10-9-9-9-9-|--5--5--5--5--5--5--5--5-|
|---------------------|-------------------------|
|--8--8--8--8-7-7-7-7-|--3--3--3--3--3--3--3--3-|
|---------------------|-------------------------|
|
|
|---------------------|-------------------------|
|---------------------|-------------------------|
|---------------------|-------------------------|
|--5--5--5--5-5-5-5-5-|-10-10-10-10-10-10-10-10-|
|--5--5--5--5-5-5-5-5-|-10-10-10-10-10-10-10-10-|
|--3--3--3--3-3-3-3-3-|--8--8--8--8--8--8--8--8-|


   
|-------------------------|-------------------------|
|-------------------------|-------------------------|
|-14-14-14-14-14-14-14-14-|-14-14-14-14-12-12-10-10-|
|-------------------------|-------------------------|
|-12-12-12-12-12-12-12-12-|-12-12-12-12-10-10--8--8-|
|-------------------------|-------------------------|
|
|  
|-------------------------|-------------------------|
|-------------------------|-------------------------|
|-10-10-10-10-10-10-10-10-|-10-10-10-10--9--9--9--9-|
|-10-10-10-10-10-10-10-10-|-10-10-10-10-10-10-10-10-|
|--8--8--8--8--8--8--8--8-|--8--8--8--8--7--7--7--7-|
|-------------------------|-------------------------|


   
|-------------------------|-------------------------|
|-------------------------|-------------------------|
|-14-14-14-14-14-14-14-14-|-14-14-14-14-12-12-10-10-|
|-------------------------|-------------------------|
|-12-12-12-12-12-12-12-12-|-12-12-12-12-10-10--8--8-|
|-------------------------|-------------------------|
|
| 
|-------------------------|-------------------------|
|-------------------------|-------------------------|
|--7--7--7--7--7--7--7--7-|--7--7--7--7-------------|
|--7--7--7--7--7--7--7--7-|--7--7--7--7--7--7--7--7-|
|--5--5--5--5--5--5--5--5-|--5--5--5--5--7--7--7--7-|
|-------------------------|--------------5--5--5--5-|


   
|-----------------------------------------|-------------------------|
|-----------------------------------------|-------------------------|
|--10---10---10---10---10---10---10---10--|-12-12-12-12-12-12-12-12-|
|-----------------------------------------|-------------------------|
|---8----8----8----8----8----8----8----8--|-10-10-10-10-10-10-10-10-|
|-----------------------------------------|-------------------------|
|
|  
|-----------------------------------------|-------------------------|
|-----------------------------------------|-------------------------|
|-----------------------------------------|-------------------------|
|---8----8----8----8----8----8----8----8--|-10-10-10-10-10-10-10-10-|
|---8----8----8----8----8----8----8----8--|-10-10-10-10-10-10-10-10-|
|---6----6----6----6----6----6----6----6--|--8--8--8--8--8--8--8--8-|


  
|---------------------|-------------------------|
|---------------------|-------------------------|
|-10-10-10-10-9-9-9-5-|--5-10-10-10--9--9--5--5-|
|---------------------|-------------------------|
|--8--8--8--8-7-7-7-3-|--3--8--8--8--7--7--3--3-|
|---------------------|-------------------------|
|
|  
|---------------------|-------------------------|
|---------------------|-------------------------|
|---------------------|-------------------------|
|--5--5--5--5-5-5-5-5-|-10-10-10-10-10-10-10-10-|
|--5--5--5--5-5-5-5-5-|-10-10-10-10-10-10-10-10-|
|--3--3--3--3-3-3-3-3-|--8--8--8--8--8--8--8--8-|


 Solo:
 
|---------------------15-13-|-(13)----------13----------------------|
|-15-15---13-13-13p11-------|------15-15-15----15p13----15p13-------|
|---------------------------|------------------------15-------15p14-|
|---------------------------|---------------------------------------|
|---------------------------|---------------------------------------|
|---------------------------|---------------------------------------|
|
|  
|---------------------------|---------------------------------------|
|---------------------------|---------------------------------------|
|---------------------------|---------------------------------------|
|-12-12---10-10--------8--8-|-------7--7-----5-----------3----------|
|-12-12---10-10--------8--8-|-------7--7-----5-----------3----------|
|-10-10----8--8--------6--6-|-------5--5-----3-----------1----------|


   
|----------------------------|-----------------------------------|
|-15------15---(15)-13-15-13-|-(13)------------------------------|
|----------------------------|------10-9-9-10-9-7----10-9-7------|
|----------------------------|--------------------10--------10---|
|----------------------------|-----------------------------------|
|----------------------------|-----------------------------------|
|
| 
|----------------------------|-----------------------------------|
|----------------------------|-----------------------------------|
|----------------------------|-----------------------------------|
|--5--5-5--5-5---5------5--5-|---7---7-7-7--7---7-----7---7------|
|--5--5-5--5-5---5------5--5-|---7---7-7-7--7---7-----7---7------|
|--3--3-3--3-3---3------3--3-|---5---5-5-5--5---5-----5---5------|



|---------------------------|------------------------|
|---------------------------|------------------------|
|-10-------------9------12--|-(12)-10------14---12---|
|---------------------------|------------------------|
|---------------------------|------------------------|
|---------------------------|------------------------|
|
|  
|---------------------------|------------------------|
|---------------------------|------------------------|
|---------------------------|------------------------|
|-12--12---10-10----8-8-----|-------7--7----5----3---|
|-12--12---10-10----8-8-----|-------7--7----5----3---|
|-10--10----8--8----6-6-----|-------5--5----3----1---|


  
|-----------------------------|------------------------------------|
|-----------------------------|------------------------------------|
|-14b15======14r==14-14h15-14-|-(14)-12-10-9-10-9-7----10-9-7------|
|-----------------------------|---------------------10--------10---|
|-----------------------------|------------------------------------|
|-----------------------------|------------------------------------|
|
|  
|-----------------------------|------------------------------------|
|-----------------------------|------------------------------------|
|-----------------------------|------------------------------------|
|--5-----5-5--5-5--5-----5--5-|---7---7--7-7--7---7-----7---7------|
|--5-----5-5--5-5--5-----5--5-|---7---7--7-7--7---7-----7---7------|
|--3-----3-3--3-3--3-----3--3-|---5---5--5-5--5---5-----5---5------|



|---------------------|----------------------|
|---------------------|----------------------|
|--7------------------|-(7)------------------|
|---------------------|-----10---------------|
|---------------------|-----------10-----8---|
|---------------------|----------------------|
|
|  
|---------------------|----------------------|
|---------------------|----------------------|
|---------------------|----------------------|
|-12-12---10-10---8-8-|------7--7----5---3---|
|-12-12---10-10---8-8-|------7--7----5---3---|
|-10-10----8--8---6-6-|------5--5----3---1---|


                                
  
|-----------------------------------|--------------------------------|
|-----------------------------------|--------------------------------|
|-------------------------------7-9-|-10----12----14----15----17-----|
|------------------------7-8-10-----|--------------------------------|
|-------0h1h3-5h7---8-10------------|--------------------------------|
|-0h1h3-----------------------------|--------------------------------|
|
| 
|-----------------------------------|--------------------------------|
|-----------------------------------|--------------------------------|
|-----------------------------------|--------------------------------|
|-5---5---5---5---5----5---5----5---|--5--7-----7--7--7-----7--7-7---|
|-5---5---5---5---5----5---5----5---|--5--7-----7--7--7-----7--7-7---|
|-3---3---3---3---3----3---3----3---|--3--5-----5--5--5-----5--5-5---|



|-------------------13---|-(13)-------------------|
|-15-------15------------|------15----------------|
|------------------------|--------------17---14---|
|------------------------|------------------------|
|------------------------|------------------------|
|------------------------|------------------------|
|
| 
|------------------------|------------------------|
|------------------------|------------------------|
|------------------------|------------------------|
|-12--12---10--10----8-8-|-------7--7----5----3---|
|-12--12---10--10----8-8-|-------7--7----5----3---|
|-10--10----8---8----6-6-|-------5--5----3----1---|



|-------------------------|-13-13-13-13-15-15-15-15-|
|-15-15-15-15-15-15-15-15-|-------------------------|
|-------------------------|-------------------------|
|-------------------------|-------------------------|
|-------------------------|-------------------------|
|-------------------------|-------------------------|
|
|  
|-------------------------|-------------------------|
|-------------------------|-------------------------|
|-------------------------|-------------------------|
|--5--5--5--5--5--5--5--5-|-10-10-10-10-10-10-10-10-|
|--5--5--5--5--5--5--5--5-|-10-10-10-10-10-10-10-10-|
|--3--3--3--3--3--3--3--3-|--8--8--8--8--8--8--8--8-|


 Bridge

|-17-17--------------------|-------------------------|
|--------------------------|-------------------------|
|--------------------------|-------------------------|
|--------------------------|-------------------------|
|--------------------------|-------------------------|
|--------------------------|-------------------------|
|
| Gtrs I, II
|  
|--------------------------|-------------------------|
|--------------------------|-------------------------|
|-10-10--------------------|-------------------------|
|-10-10--------------------|-------------------------|
|--8--8--------------------|-------------------------|
|--------------------------|-------------------------|
|
| Gtr III
|        PM----------------------------------------|
|  
|--------------------------|-------------------------|
|-10-10--------------------|-------------------------|
|-10-10--------------------|-------------------------|
|-10-10-10--10-10-10-10-10-|-10-10-10-10-10-10-10-10-|
|--8--8--8---8--8--8--8--8-|--8--8--8--8--7--7--7--7-|
|--------------------------|-------------------------|



|
|PM-------------------------------|
|
|-----------------|-----------------|
|-----------------|-----------------|
|-----------------|-----------------|
|-7-7-7-7-7-7-7-7-|-7-7-7-7---------|
|-5-5-5-5-5-5-5-5-|-5-5-5-5-7-7-7-7-|
|-----------------|---------5-5-5-5-|


  Gtrs I, II
 
|-----------------|-------------------------|
|-----------------|-------------------------|
|-----------------|-------------------------|
|-----------------|-------------------------|
|-----------------|-------------------------|
|-----------------|-------------------------|
|
| Gtr III
| PM---------------------------------------|
| 
|-----------------|-------------------------|
|-----------------|-------------------------|
|-----------------|-------------------------|
|-----------------|-------------------------|
|-8-8-8-8-8-8-8-8-|-10-10-10-10-10-10-10-10-|
|-6-6-6-6-6-6-6-6-|--8--8--8--8--8--8--8--8-|


  
|-----------------|---------------------|
|-----------------|---------------------|
|-----------------|---------------------|
|-----------------|---------------------|
|-----------------|---------------------|
|-----------------|---------------------|
|
|PM-----------------------------------|
| 
|-----------------|---------------------|
|-----------------|---------------------|
|-----------------|---------------------|
|-----------------|---------------------|
|-5-5-5-5-5-5-5-5-|-10-10-10-10-8-8-8-8-|
|-3-3-3-3-3-3-3-3-|--8--8--8--8-6-6-6-6-|


  Gtr IV
 
|-------------------------|-------------------------|
|-------------------------|-------------------------|
|-10-10-10-10-10-10-10-10-|-10-10-10-10-12p10-12p10-|
|-------------------------|-------------------------|
|-------------------------|-------------------------|
|-------------------------|-------------------------|
|
|  PM----------------------------------------------|
| 
|-------------------------|-------------------------|
|-------------------------|-------------------------|
|-------------------------|-------------------------|
|-------------------------|--------------5--5--5--5-|
|--8--8--8--8--8--8--8--8-|--8--8--8--8--3--3--3--3-|
|--5--5--5--5--5--5--5--5-|--5--5--5--5-------------|


   
|-------------------------|-------------------------|
|-------------------------|-------------------------|
|-10-10-10-10-10-10-10-10-|-10-10-10-10-12h14-12-10-|
|-------------------------|-------------------------|
|-------------------------|-------------------------|
|-------------------------|-------------------------|
|
|PM------------------------------------------------|
|  
|-------------------------|-------------------------|
|-------------------------|-------------------------|
|-------------------------|-------------------------|
|--7--7--7--7--7--7--7--7-|--7--7--7--7--5--5--5--5-|
|--5--5--5--5--5--5--5--5-|--5--5--5--5--3--3--3--3-|
|-------------------------|-------------------------|


   
|-------------------------|-------------------------|
|-------------------------|-------------------------|
|-10-10-10-10-10-10-10-10-|-12-12-12-12-12-12-12-12-|
|-------------------------|-------------------------|
|-------------------------|-------------------------|
|-------------------------|-------------------------|
|
|  PM------------------------------------------------
| 
|-------------------------|-------------------------|
|-------------------------|-------------------------|
|-------------------------|-------------------------|
|--3--3--3--3--3--3--3--3-|--5--5--5--5--5--5--5--5-|
|--1--1--1--1--1--1--1--1-|--3--3--3--3--3--3--3--3-|
|-------------------------|-------------------------|


                         Gtrs I, II
           
                          PM------------------|

|----------------------|-------------------------|
|----------------------|-------------------------|
|-10-10-10-9-9-9-------|-------------------------|
|----------------10-10-|-------------------------|
|----------------------|-10-10-10-10-10-10-10-10-|
|----------------------|--8--8--8--8--8--8--8--8-|
|
|PM--------------------------------------------|
|
|----------------------|-------------------------|
|----------------------|-------------------------|
|----------------------|-------------------------|
|----------------------|--5--5--5--5--5--5--5--5-|
|--5--5--5-5-5-5--5--5-|--3--3--3--3--3--3--3--3-|
|--3--3--3-3-3-3--3--3-|-------------------------|


 Post Bridge
|-------------------------|-------------------------|
|-------------------------|-------------------------|
|-10-10-10-10-10-10-10-10-|-10-10-10-10--9--9--9--9-|
|-10-10-10-10-10-10-10-10-|-10-10-10-10-10-10-10-10-|
|--8--8--8--8--8--8--8--8-|--8--8--8--8--7--7--7--7-|
|-------------------------|-------------------------|
|
|  
|-------------------------|-------------------------|
|-------------------------|-------------------------|
|-10-10-10-10-10-10-10-10-|-10-10-10-10--9--9--9--9-|
|-------------------------|-------------------------|
|--8--8--8--8--8--8--8--8-|--8--8--8--8--7--7--7--7-|
|-------------------------|-------------------------|


  
|-------------------------|--------------------------|
|-------------------------|--------------------------|
|--7--7--7--7--7--7--7--7-|---7---7--7--7------------|
|--7--7--7--7--7--7--7--7-|---7---7--7--7-7--7--7--7-|
|--5--5--5--5--5--5--5--5-|---5---5--5--5-7--7--7--7-|
|-------------------------|---------------5--5--5--5-|
|
|  
|-------------------------|--------------------------|
|-------------------------|--------------------------|
|-10-10-10-10-10-10-10/17-|-(17)-17/19-14---14/15-12-|
|-------------------------|--------------------------|
|--8--8--8--8--8--8--8/15-|-(15)-15/17-12---12/13-10-|
|-------------------------|--------------------------|


   
|-------------------------|-------------------------|
|-------------------------|-------------------------|
|-------------------------|-------------------------|
|--8--8--8--8--8--8--8--8-|-10-10-10-10-10-10-10-10-|
|--8--8--8--8--8--8--8--8-|-10-10-10-10-10-10-10-10-|
|--6--6--6--6--6--6--6--6-|--8--8--8--8--8--8--8--8-|
|
|
|-------------------------|-------------------------|
|-------------------------|-------------------------|
|-10-10-10-10-10-10-10-10-|--9--9--9--9--9--9--9--9-|
|-------------------------|-------------------------|
|--8--8--8--8--8--8--8--8-|--7--7--7--7--7--7--7--7-|
|-------------------------|-------------------------|


  
|--------------------|---------------------|
|--------------------|---------------------|
|--------------------|---------------------|
|--5--5--5-5-5-5-5-5-|-10-10-10-10-8-8-8-8-|
|--5--5--5-5-5-5-5-5-|-10-10-10-10-8-8-8-8-|
|--3--3--3-3-3-3-3-3-|--8--8--8--8-6-6-6-6-|
|
| 
|--------------------|---------------------|
|--------------------|---------------------|
|-10-10-10-9-9-9-5-5-|--5--5--5--5-5-5-5-5-|
|--------------------|---------------------|
|--8--8--8-7-7-7-3-3-|--3--3--3--3-3-3-3-3-|
|--------------------|---------------------|


   
|-------------------------|---------------------|
|-------------------------|---------------------|
|-------------------------|-------------5-5-5-5-|
|--7--7--7--7--7--7--7--7-|--7--7--7--7-5-5-5-5-|
|--8--8--8--8--8--8--8--8-|--8--8--8--8-3-3-3-3-|
|--5--5--5--5--5--5--5--5-|--5--5--5--5---------|
|
|  
|-------------------------|---------------------|
|-------------------------|---------------------|
|-10-10-10-10-10-10-10-10-|-10-10-10-10-9-9-9-9-|
|-------------------------|---------------------|
|--8--8--8--8--8--8--8--8-|--8--8--8--8-7-7-7-7-|
|-------------------------|---------------------|


   
|-------------------------|--------------------------|
|-------------------------|--------------------------|
|--7--7--7--7--7--7--7--7-|---7---7--7--7-5--5--5--5-|
|--7--7--7--7--7--7--7--7-|---7---7--7--7-5--5--5--5-|
|--5--5--5--5--5--5--5--5-|---5---5--5--5-3--3--3--3-|
|-------------------------|--------------------------|
|
|  
|-------------------------|--------------------------|
|-------------------------|--------------------------|
|-10-10-10-10-10-10-10/17-|-(17)-17/19-14---14/15-12-|
|-------------------------|--------------------------|
|--8--8--8--8--8--8--8/15-|-(15)-15/17-12---12/13-10-|
|-------------------------|--------------------------|


  
|-------------------------|-----------------|
|-------------------------|-----------------|
|--3--3--3--3--3--3--3--3-|-5-5-5-5-5-5-5-5-|
|--3--3--3--3--3--3--3--3-|-5-5-5-5-5-5-5-5-|
|--1--1--1--1--1--1--1--1-|-3-3-3-3-3-3-3-3-|
|-------------------------|-----------------|
|
|  
|-------------------------|-----------------|
|-------------------------|-----------------|
|-10-10-10-10-10-10-10-10-|-9-9-9-9-9-9-9-9-|
|-------------------------|-----------------|
|--8--8--8--8--8--8--8--8-|-7-7-7-7-7-7-7-7-|
|-------------------------|-----------------|


   
|--------------------|-----------------|
|--------------------|-----------------|
|--------------------|-5-5-5-5-5-5-5-5-|
|--5--5--5-5-5-5-5-5-|-5-5-5-5-5-5-5-5-|
|--5--5--5-5-5-5-5-5-|-3-3-3-3-3-3-3-3-|
|--3--3--3-3-3-3-3-3-|-----------------|
|
| 
|--------------------|-----------------|
|--------------------|-----------------|
|-10-10-10-9-9-9-5-5-|-5-5-5-5-5-5-5-5-|
|--------------------|-----------------|
|--8--8--8-7-7-7-3-3-|-3-3-3-3-3-3-3-3-|
|--------------------|-----------------|


 Chorus/Outro. Play until fade out.
   
|--------------------------------------------------------------------|
|o--13------13------13------13------13------13------13------10--11--o|
|-------10------10------10------10------10------10------10-----------|x2
|o------------------------------------------------------------------o|
|--------------------------------------------------------------------|
|
|   
|-----------------------------------------|--------------------------------|
|-----------------------------------------|--------------------------------|
|--10---10---10---10---10---10---10---10--|-10--10--10--10---9---9---9---9-|
|--10---10---10---10---10---10---10---10--|-10--10--10--10--10--10--10--10-|
|---8----8----8----8----8----8----8----8--|--8---8---8---8---7---7---7---7-|
|-----------------------------------------|--------------------------------|


  
|--------------------------------------------------------------------|
|o--13------13------13------13------13------13------13------10--11--o|
|-------10------10------10------10------10------10------10-----------|x2
|o------------------------------------------------------------------o|
|--------------------------------------------------------------------|
|
|   
|----------------------------------------|---------------------------------|
|----------------------------------------|---------------------------------|
|--7----7----7----7----7----7----7----7--|--7---7---7---7------------------|
|--7----7----7----7----7----7----7----7--|--7---7---7---7---7---7---7---7--|
|--5----5----5----5----5----5----5----5--|--5---5---5---5---7---7---7---7--|
|----------------------------------------|------------------5---5---5---5--|


|--------------------------------------------------------------------|
|o--13------13------13------13------13------13------13------10--11--o|
|-------10------10------10------10------10------10------10-----------|x2
|o------------------------------------------------------------------o|
|--------------------------------------------------------------------|
|
|  
|-----------------------------------------|--------------------------------|
|-----------------------------------------|--------------------------------|
|-----------------------------------------|--------------------------------|
|---8----8----8----8----8----8----8----8--|-10--10--10--10--10--10--10--10-|
|---8----8----8----8----8----8----8----8--|-10--10--10--10--10--10--10--10-|
|---6----6----6----6----6----6----6----6--|--8---8---8---8---8---8---8---8-|


|--------------------------------------------------------------------|
|o--13------13------13------13------13------13------13------10--11--o|
|-------10------10------10------10------10------10------10-----------|x2
|o------------------------------------------------------------------o|
|--------------------------------------------------------------------|
|
|  
|-----------------------------------------|--------------------------------|
|-----------------------------------------|--------------------------------|
|-----------------------------------------|--------------------------------|
|---5----5----5----5----5----5----5----5--|-10--10--10--10---8---8---8---8-|
|---5----5----5----5----5----5----5----5--|-10--10--10--10---8---8---8---8-|
|---3----3----3----3----3----3----3----3--|--8---8---8---8---6---6---6---6-|


   
|--------------------------------------------------------------------|
|o--13------13------13------13------13------13------13------10--11--o|
|-------10------10------10------10------10------10------10-----------|x2
|o------------------------------------------------------------------o|
|--------------------------------------------------------------------|
|
|  
|-----------------------------------------|--------------------------------|
|-----------------------------------------|--------------------------------|
|-----------------------------------------|------------------5---5---5---5-|
|---7----7----7----7----7----7----7----7--|--7---7---7---7---5---5---5---5-|
|---8----8----8----8----8----8----8----8--|--8---8---8---8---3---3---3---3-|
|---5----5----5----5----5----5----5----5--|--5---5---5---5-----------------|


  
|--------------------------------------------------------------------|
|o--13------13------13------13------13------13------13------10--11--o|
|-------10------10------10------10------10------10------10-----------|x2
|o------------------------------------------------------------------o|
|--------------------------------------------------------------------|

   
|-----------------------------------------|--------------------------------|
|-----------------------------------------|--------------------------------|
|---7----7----7----7----7----7----7----7--|--7---7---7---7---5---5---5---5-|
|---7----7----7----7----7----7----7----7--|--7---7---7---7---5---5---5---5-|
|---5----5----5----5----5----5----5----5--|--5---5---5---5---3---3---3---3-|
|-----------------------------------------|--------------------------------|


  
|--------------------------------------------------------------------|
|o--13------13------13------13------13------13------13------10--11--o|
|-------10------10------10------10------10------10------10-----------|x2
|o------------------------------------------------------------------o|
|--------------------------------------------------------------------|
|
|   
|-----------------------------------------|--------------------------------|
|-----------------------------------------|--------------------------------|
|---3----3----3----3----3----3----3----3--|--5---5---5---5---5---5---5---5-|
|---3----3----3----3----3----3----3----3--|--5---5---5---5---5---5---5---5-|
|---1----1----1----1----1----1----1----1--|--3---3---3---3---3---3---3---3-|
|-----------------------------------------|--------------------------------|


|--------------------------------------------------------------------|
|o--13------13------13------13------13------13------13------10--11--o|
|-------10------10------10------10------10------10------10-----------|x2
|o------------------------------------------------------------------o|
|--------------------------------------------------------------------|

  
|-----------------------------------------|--------------------------------|
|-----------------------------------------|--------------------------------|
|-----------------------------------------|--5---5---5---5---5---5---5---5-|
|---5----5----5----5----5----5----5----5--|--5---5---5---5---5---5---5---5-|
|---5----5----5----5----5----5----5----5--|--3---3---3---3---3---3---3---3-|
|---3----3----3----3----3----3----3----3--|--------------------------------|


    
|--------------------------------------------------------------------|
|o--13------13------13------13------13------13------13------10--11--o|
|-------10------10------10------10------10------10------10-----------|x2
|o------------------------------------------------------------------o|
|--------------------------------------------------------------------|
|
| 
|-----------------------------------------|--------------------------------|
|-----------------------------------------|--------------------------------|
|--10---10---10---10---10---10---10---10--|-10--10--10--10---9---9---9---9-|
|--10---10---10---10---10---10---10---10--|-10--10--10--10--10--10--10--10-|
|---8----8----8----8----8----8----8----8--|--8---8---8---8---7---7---7---7-|
|-----------------------------------------|--------------------------------|


   
|--------------------------------------------------------------------|
|o--13------13------13------13------13------13------13------10--11--o|
|-------10------10------10------10------10------10------10-----------|x2
|o------------------------------------------------------------------o|
|--------------------------------------------------------------------|



|-----------------------------------------|--------------------------------|
|-----------------------------------------|--------------------------------|
|---7----7----7----7----7----7----7----7--|--7---7---7---7-----------------|
|---7----7----7----7----7----7----7----7--|--7---7---7---7---7---7---7---7-|
|---5----5----5----5----5----5----5----5--|--5---5---5---5---7---7---7---7-|
|-----------------------------------------|------------------5---5---5---5-|


|--------------------------------------------------------------------|
|o--13------13------13------13------13------13------13------10--11--o|
|-------10------10------10------10------10------10------10-----------|x2
|o------------------------------------------------------------------o|
|--------------------------------------------------------------------|
|
|
|  
|----------------------------------------|--------------------------------|
|----------------------------------------|--------------------------------|
|----------------------------------------|--------------------------------|
|--8----8----8----8----8----8----8----8--|-10--10--10--10--10--10--10--10-|
|--8----8----8----8----8----8----8----8--|-10--10--10--10--10--10--10--10-|
|--6----6----6----6----6----6----6----6--|--8---8---8---8---8---8---8---8-|

                                                                       
|--------------------------------------------------------------------|
|o--13------13------13------13------13------13------13------10--11--o|
|-------10------10------10------10------10------10------10-----------|x2
|o------------------------------------------------------------------o|
|--------------------------------------------------------------------|


|-----------------------------------------|--------------------------------|
|-----------------------------------------|--------------------------------|
|-----------------------------------------|--5---5---5---5---5---5---5---5-|
|---5----5----5----5----5----5----5----5--|--5---5---5---5---5---5---5---5-|
|---5----5----5----5----5----5----5----5--|--3---3---3---3---3---3---3---3-|
|---3----3----3----3----3----3----3----3--|--------------------------------|





End. Thank you for viewing my tab.





| b  bend note
| r  release bend
| PM palm mute note
| /  slide up
| \  slide down
| h  hammer-on
| p  pull-off
| ~  vibrato/let ring
| +  harmonic
| x  Mute note
============================================================================    

Added On December 16th, 2013

SHARE

Comments

blog comments powered by Disqus

VERSIONS

ADVERTISEMENT