Mykko Montana Tabs

Do It

1 versions

TAB

            Intro:

         (x8)
e|-5-4-5-4-5---2-4-5-2|
B|--------------------|
G|--------------------|
D|--------------------|
A|--------------------|
E|--------------------|

Pre-Chorus:

         (x4) 
e|--------------------|  |--------------------|--------------------|
B|-5-5-5-2-2-0--------|  |-------0-2-2-2-2----|--5-3-2-0---0-0-----|
G|--------------------|  |-2-2-2--------------|----------2-----2---|
D|--------------------|  |--------------------|--------------------|
A|--------------------|  |--------------------|--------------------|
E|--------------------|  |--------------------|--------------------|

Chorus:

        (x3)
e|--------------------|   |--------------------|
B|--0---0---0---------|   |--5-3-2-0---0-0-----|
G|----2---2---2-------|   |----------2-----2---|
D|--------------------|   |--------------------|
A|--------------------|   |--------------------|
E|--------------------|   |--------------------|    

Added On December 16th, 2013

SHARE

Comments

blog comments powered by Disqus

ADVERTISEMENT