Nameless Race Tabs

Mind And Soul

1 versions

TAB

            Mind And Soul Tab by Nameless Race


             NAMELESS RACE
             Mind and Soul
  By Jeremy Spence and Joe McDonough of The
              Nameless Race

     THIS WHOLE SONG IS PLAYED WITH
                 DISTORTION

        INTRO Play x2
    ^=bend and unbend note slowly for continuose note

e|------------------------------------------|
B|---6--8^--6---6---------6---8^------------|
G|-7--7------7-7-7-9^--7-7--6----7-5--------|
D|----------------------------------7-5----7|
A|------------------------------------7-5-3-|
E|------------------------------------------|

         MAIN Play x4 continuosly
   D= Down Strum  U= Up Strum  X= strum muted strings
e|------------------------------------------|
B|------------------------------------------|
G|------------------------------------------|
D|4-4-XXXX-7-7-XX-9-9-XXXX-7-7-XX-Start-----|
A|4-4-XXXX-7-7-XX-9-9-XXXX-7-7-XX-Again-----|
E|2-2-XXXX-5-5-XX-7-7-XXXX-5-5-XX-Quckly----|
      DUDU     DU     DUDU     DU

         Other Part playx4
e|--------------------|
B|----P---------------|
G|----A---------------|
D|-22-U-5-7-XX-7-XX-5-|
A|-22-S-5-7-XX-7-XX-5-|
E|-00-E-3-5-XX-5-XX-3-|
            DU   DU

         Chorus Play x4
e|------------------------|
B|------------------------|
G|------------------------|
D|-55-2-2-------------2-2-|
A|-55-2-2-------------2-2-|
E|-33-0-0-3h5p3-2h5p3-0-0-|

 The Solo and lyrics are a work in pprogress.We'll keep you informed. Updates will be made. Pleas feel 
to comment or make any suggestions. Thanks! Oh and any questions you may have, e-mail us at 7dust@hotsheet.com.    

Added On December 5th, 2013

SHARE

Comments

blog comments powered by Disqus

ADVERTISEMENT