Naomi Tabs

My Song

1 versions

TAB

            Am          F           C           G
E|--0----0---|--1----1---|--0----0---|--3----3---|
B|---1----1--|---1----1--|---1----1--|---0----0--|
G|----2----2-|----2----2-|----0----0-|----0----0-|
D|-----------|-3----3----|-----------|-----------|
A|-0----0----|-----------|-3----3----|-----------|
E|-----------|-----------|-----------|-3----3----|

  Am          F           C           E
E|--0----0---|--1----1---|--0----0---|--0----0---|
B|---1----1--|---1----1--|---1----1--|---0----0--|
G|----2----2-|----2----2-|----0----0-|----1----1-|
D|-----------|-3----3----|-----------|-----------|
A|-0----0----|-----------|-3----3----|-2---------|
E|-----------|-----------|-----------|------0----|

  Dm          C           F           G
E|--1----1---|--0----0---|--1----1---|--3----3---|
B|---3----3--|---1----1--|---1----1--|---0----0--|
G|----2----2-|----0----0-|----2----2-|----0----0-|
D|-0----0----|-----------|-3----3----|-----------|
A|-----------|-3----3----|-----------|-----------|
E|-----------|-----------|-----------|-3----3----|

  Dm          C           F           G
E|--1----1---|--0----0---|--1----1---|--0----0---|
B|---3----3--|---1----1--|---1----1--|---0----0--|
G|----2----2-|----0----0-|----2----2-|----1----1-|
D|-0----0----|-----------|-3----3----|-----------|
A|-----------|-3----3----|-----------|-2---------|
E|-----------|-----------|-----------|------0----|

  Am          F           C           G
E|--0----0---|--1----1---|--0----0---|--3----3---|
B|---1----1--|---1----1--|---1----1--|---0----0--|
G|----2----2-|----2----2-|----0----0-|----0----0-|
D|-----------|-3----3----|-----------|-----------|
A|-0----0----|-----------|-3----3----|-----------|
E|-----------|-----------|-----------|-3----3----|

 Am          F           C           E            Am
E|--0----0---|--1----1---|--0----0---|--0----0---|-0-|
B|---1----1--|---1----1--|---1----1--|---0----0--|-1-|
G|----2----2-|----2----2-|----0----0-|----1----1-|-2-|
D|-----------|-3----3----|-----------|-----------|-2-|
A|-0----0----|-----------|-3----3----|-2---------|-0-|
E|-----------|-----------|-----------|------0----|-x-|    

Added On December 16th, 2013

SHARE

Comments

blog comments powered by Disqus

ADVERTISEMENT