Napalm Death Tabs

Scum

3 versions

TAB

            Scum Tab by Napalm Death


Napalm Death

Scum

From: Scum 1989

Tune guitar to D



bass start off riff 1 two times



riff 1(comes in after bass)

||o-------------------------------------------------o||

||o-------------------------------------------------o||

||----------3---------7-5----------3----------/------||

||--0-0-0-0-1-0-0-0-0-5-4--0-0-0-0-1-0-0-0-0-4-------||



riff 2(bend last note on repeat)

||o--------------------------------------------------------------------o||

||o--------------------------------------------------------------------o||

||-----5-6-7---5-6-7---5-6-7---5-6-7----7-6-5---7-6-5---7-6-5---7-6-5---||

||---0-3-4-5-0-3-4-5-0-3-4-5-0-3-4-5--0-5-4-3-0-5-4-3-0-5-4-3-0-5-4-3---||



repeat riff 1



riff 4

||--------------------------------||

||--------------------------------||

||--7-6-8--7-6-8--7-6-8--7-6-8----||

||--5-4-6--5-4-6--5-4-6--5-4-6----||



riff 5

||-------------------------------------------||

||-------------------------------------------||

||--6\8--6\8--6\8--6\8--6\11-6\11-6\11-6\11--||

||--4\6--4\6--4\6--4\6--4\9--4\9--4\9--4\9---||



||--------------------------------------------------------------------------||

||--------------------------------------------------------------------------||

||-6\8--6\8--6\8--6\8--6\8--6\8--6\8--6\8--6\8--6\8--6\11-6\11-6\11~~-------||

||-4\6--4\6--4\6--4\6--4\6--4\6--4\6--4\6--4\6--4\9--4\9--4\9--4\9-~~--10\--||



riffs 6(repeat 3 times)

||o-----------------------------------------------------------o||

||o-----------------------------------------------------------o||

||------3-----4-----5-----7-6-7------3-----4-----5-----9-8-9---||

||--0-0-1-0-0-2-0-0-3-0-0-5-4-5--0-0-1-0-0-2-0-0-3-0-0-7-6-7---||



riff 7

||o-----------------------------------------------------o||

||o-----------------------------------------------------o||

||------3-----4-----5-----/------3-----4-----5------/----||

||--0-0-1-0-0-2-0-0-3-0-0-5--0-0-1-0-0-2-0-0-3-0-0-7-----||



repeat riff 4 and 5 to end the song    

Added On December 5th, 2013

SHARE

Comments

blog comments powered by Disqus

VERSIONS

ADVERTISEMENT