Netral Tabs

Cinta Gila

3 versions

TAB

            This is song from Indonesian punk artist "NETRAL".


intro:
|--------------------------------------------------------------|
|--------------------------------------------------------------|
|-------------------7--6--4--2--4--7--6--4--2--4---------------|
|--7--6--4--2--4---0--0--0--0--0--0--0--0--0--0----------------|
|-0--0--0--0--0------------------------------------------------|
|--------------------------------------------------------------|

main riff/reff:
|--------------------------------------------------------------|
|--------------------------------------------------------------|
|----------------------------------7--6--4--2--4--7--6--4--2--4|
|--7--6--4--2--4--7--6--4--2--4---0--0--0--0--0--0--0--0--0--0-|
|-0--0--0--0--0--0--0--0--0--0---------------------------------|     
|--------------------------------------------------------------|

verse:
|---------------|
|-55-555-55-555-|
|-66-666-66-666-|
|-77-777-77-777-|
|-77-777-77-777-|
|---------------|    

Added On December 16th, 2013

SHARE

Comments

blog comments powered by Disqus

VERSIONS

ADVERTISEMENT