Neva Dinova Tabs

A Man And His Dream

1 versions

TAB

            -------------------------------------------------------------------------------
			  A Man and His Dream - Neva Dinova
-------------------------------------------------------------------------------

Tabbed by: Yoshima

Tuning: Standard

Capo: 7th fret

>>>>>>>>>>>>>>>>>>>>>>>>>>>>>>>>>>>>>>>>>>>>>>>>>>>>>>>>>>>>>>>>>>>>>>>>>>>>>>


Chords used relative to capo on 7th fret:

....Em......C......G......D...
e|---0------0------3------2---|
B|---0------1------0------3---|
G|---0------0------0------2---|
D|---2------2------0------0---|
A|---2------3------2------0---|
E|---0------0------3----------|

>>>>>>>>>>>>>>>>>>>>>>>>>>>>>>>>>>>>>>>>>>>>>>>>>>>>>>>>>>>>>>>>>>>>>>>>>>>>>>


>>Intro

....G.........................................................
e|---3------2------0------------------------------------------|
B|-------0------0------0--3------1------0-----------------0---|
G|-----0------0------0--------0------0-------0--2---0---0-----|
D|--------------------------0------0------0-------0---0-------|
A|------------------------------------------------------------|
E|------------------------------------------------------------|

...Em..........................................................
e|------------------------------------------------------------|
B|------------------------------------------------------------|
G|-------0------0------0------0------0------0------0------0---|
D|-----2------2------2------2------2------2------2------2-----|
A|---2------2------2------2------2------2------2------2-------|
E|------------------------------------------------------------|

...D........................................................
e|---2------0-----------------------------------------------|
B|-------3------3--3------1------0------------0-------------|
G|-----2------2--------0------0------0----2-------0---0-----|
D|--(0)--------------0------0------0----0---0--(0)--0---0---|
A|----------------------------------------------------------|
E|----------------------------------------------------------|

....C........................................................
e|-----------------------------------------------------------|
B|-----------------------------------------------------------|
G|-------0-----0------0------0------0------0------0------0---|
D|-----2-----2------2------2------2------2------2------2-----|
A|---3-----3------3------3------3------3------3------3-------|
E|-----------------------------------------------------------|

>>>(x2)

>>>>>>>>>>>>>>>>>>>>>>>>>>>>>>>>>>>>>>>>>>>>>>>>>>>>>>>>>>>>>>>>>>>>>>>>>>>>>>


>>repeat intro guitar for verse.....

G.............................Em.....
Sweetheart on the lawn, do you dream?

D...................................C.....
Welcome to the morning, what do you think?

.........G.............................Em...
It's the way it always rains on your parade,

.........D..........................C......
things always come up roses for the graves,



>>>strum chords below....


..G.................Em...
I love you, take my hand,

.......D..............C......
Let me be your losing man, 

...Em......

...G.......
in dreams...

>>>>Repeat the intro sequence a few times.....

>>>>>>>>>>>>>>>>>>>>>>>>>>>>>>>>>>>>>>>>>>>>>>>>>>>>>>>>>>>>>>>>>>>>>>>>>>>>>>

then; for when the trumpet starts playing...

Repeat the below section a few times until the end...

...G...............C............
e|-----------|--|-----------|--|
B|-----------|--|-----------|--|
G|-------0---|x4|-------0---|x4|
D|-----0-----|--|-----2-----|--|
A|---2-------|--|---3-------|--|
E|-----------|--|-----------|--|

>>>>>>>>>>>>>>>>>>>>>>>>>>>>>>>>>>>>>>>>>>>>>>>>>>>>>>>>>>>>>>>>>>>>>>>>>>>>>>


[END]    

Added On December 16th, 2013

SHARE

Comments

blog comments powered by Disqus

ADVERTISEMENT