Nevermore Tabs

The Learning

4 versions

TAB

            The Learning Tab by Nevermore


my boredom and generosity have reached unfathomable heights today so here it is.

tune down 1/2 step
intro
:-------------------------------------------------
:-------------------------------------------------
:-------0-----------0-----------0-----------0----- repeat
:-----0---0-------0---0-------0---0-------0---0---
:---1-------1---1-------1---1-------1---1---------
:-3-----------3-----------3-----------3---------1* 2nd time play -3b4-

"I think therefore i am..."
:-----------------------------------------------------
:-----------------------------------------------------
:-2b3----2b3----------2b3r2---0-----0-----------0----- repeat
:----0------0-------0-------0---0-----0-------0---0---
:------1------1---1---------------1-----1---1-------1-
:---------------3-------------------------3-----------

"And i see no religion..."
:---------------------------------------------------
:---------------------------------------------------
:-------2-----------2b3r2---0-----0-----------0-----
:-----0---0-------0-------0---2-----2-------2---2---
:---0-------0---0---------------2-----2---2-------2-
:-2-----------2-------------------------0-----------

"The circle never ends..."
:---------0------------------------------------------------------------
:-3-----3---0-----------------------1-----1-3-0------------------------
:-0-----0-----0---0-----------0-----0-----0-----0---0-----------0------ repeat
:---2---------------2-------2---2-----2---------------2-------2---2*---
:-----2---------------2---2-------2-----2---------------2---2-------2*-sec.time:
:---------------0-------0-------------------------0-------0------------  -1-2-

repeat all of that again then do this the last time before it gets heavy:

:---------0---------------------------------------------------
:-3-----3---0-----------------------1-----1-1-1--------1-1-1--
:-0-----0-----0---0-----------0-----0-----0-0-0--------0-0-0--
:---2---------------2-------2---2-----2--------------2--------
:-----2---------------2---2-------2-----2----------2----------
:---------------0-------0-------------------------------------

heaviness:
:-------------------------------------------------------------------------
:-6-6-6-6-6-6-6-6-6-6-6-6-6-6-6-6-6-6-6-6-6-6-6-6-6-6-6-6-6-6-6-6-6-6-6-6-
:-4-4-4-4-4-4-4-4-4-4-4-4-6-6-6-6-6-6-6-6-6-6-6-6-7-7-7-7-7-7-7-7-7-7-7-7-
:-------------------------------------------------------------------------

:----------------------------------
:-5--5-4--4-----------5--5-4--4----
:-3--3-2--2-2--2-1--4-3--3-2--2-2--
:-----------0--0-1--4-----------0--

verse:
:-------------------------------------------------
:-------------------------------------------------
:-10--10-------10--10h12p10-9---9----------9---9/- 3x then
:--8---8--------8---8-------7---7----------7---7/-
:----0---0-0--0---------------0---0-0-0000-0---0--
:-------------------------------------------------
                                      .... 
:-------------------------------------------------
:-------------------------------------------------
:-10--10-------10--10h12p10-9---9---8---8---------  
:--8---8--------8---8-------7---7---6---6---------
:----0---0-0--0---------------0---0---0---0-------
:-------------------------------------------------

"Searching the waves of memory..."
:---------------------------------------------------------------
:---------------------------------------------------------------
:-6------------------------------5------------------------------ 3x then
:-4------------------------------3------------------------------
:---------------------------------------------------------------
:----0-0000-0-0000-0-0000-0-0000----0-0000-0-0000-0-0000-0-0000-
       ....   ....   ....   ....      ....   ....   ....   ....

:--------------------------------------------------5------------
:--------------------------------------------6-6-6-6------------
:-6------------------------------5-5-5-5-5-5-5-5-5-5------------
:-4------------------------------3-3-3-3-3-3-3-3-3-3------------
:---------------------------------------------------------------
:----0-0000-0-0000-0-0000-0-0000--------------------------------
       ....   ....   ....   ....      

Kick ass heavy riff:
:-------------------------------------------------------
:------------------------------------------------------- *2nd time w/ A.H.
:-2------3------2------3------2------3--------2-----5*-- 3x then
:-0-0000-1-0000-0-0000-1-0000-0-0000-1-0000014-41047-74-
    ....   ...........   ...........   ....... ..... .

:----------------------------------------------------------
:------------------------------------------------5--5-4--4-
:-2------3------2------3------2------3--------2--3--3-2--2- back to verse
:-0-0000-1-0000-0-0000-1-0000-0-0000-1-0000014-41----------
    ....   ...........   ...........   ....... ..

"Download...Process...Analyze..."
:-----------------------
:-2-----1---------------
:-2-----1--3---3-5\3/5-- 4X
:---3-0----1-001-3\1/3--
    ...    .....

"When man and machine become one..."
:---------------------------------------------------------- last time with 
:-------------------------------4-4-4-5-5-5-7-7-7----------    

Added On December 5th, 2013

SHARE

Comments

blog comments powered by Disqus

VERSIONS

ADVERTISEMENT