Nevertheless Tabs

Oh Child

4 versions

TAB

            Oh Child Tab by Nevertheless


O'child- NEVERTHELESS



Ok this song is off the new album LIVE LIKE WERE ALIVE! 
If you dont have it... get it! I play this song in standard but
 I'm not sure what A.J. plays it in. Listen to the song to get everything just right.
 



"Verses" you play this during the verses...

|-------------------------------------------------|
|-------------------------------------------------|
|---7-----7-----9----9----11-----11---------------|
|-----0-----0-----0----0-----0------0-------------|
|-------------------------------------------------|
|---7---7-------9---9-----10---10-----------------|


|----------------------------------------------------|
|----------------------------------------------3-----|
|---4-----4-----7----7-----6----6-----2----2-----2---|
|-----0-----0-----0----0-----0----0-----0----0-----0-|
|----------------------------------------------------|
|---3---3-------7---7------5---5------3---3----------|



For the chorus you can play the same thing as the verses but just struming.

or

You can play chords D  A  B/F#  G


   D   A   B/F#  G
|--2---0----2----3---|
|--3---2----3----3---|
|--2---2----2----0---|
|--0---2----0----0---|
|--0---0----0----2---|
|--0---0----2----3---|



Bridge is like this.... and fades in to struming as the drums come in,
then just play the chorus.

|--------------------------------------------------|
|--------------------------------------------------|
|---2----2-----4----4-----6----6-----7----7--------|
|-----0----0-----0----0-----0----0-----0----0------|
|--------------------------------------------------|
|---2---2------3---3------5---5------7---7---------|

Hope you like it. All the credit goes to the big man up stairs.    

Added On December 5th, 2013

SHARE

Comments

blog comments powered by Disqus

VERSIONS

ADVERTISEMENT