Nevertheless Tabs

Real

1 versions

TAB

            Hi my name is Antonio from Italy and this is my first tab (Nevertheless - The Real) so I 
it's good and God bless you!

If there are any comments or errors
e-mail me at antonioliviero84@virgilio.it


/ = Slide up
\ = Slide down
P.M. = Palm mute
h = Hammer


					(INTRO)

Guitar 1

LIGHT DISTORTION

E|------------------------------|
B|--10----10-----9----9---------|
G|-----9-----9-----9----9-------|
D|------------------------------|
A|------------------------------|
D|------------------------------|


E|-------------------------------------------------|
B|---5-5/7---7/9---9/10---10/12\10-----------------|
G|-------------------------------------------------|   X3
D|-------------------------------------------------|
A|-------------------------------------------------|
D|-------------------------------------------------|

E|-------------------------------------------------|
B|---5-5/7---7/9---9/10\9\7\3----------------------|
G|-------------------------------------------------|
D|-------------------------------------------------|
A|-------------------------------------------------|
D|-------------------------------------------------|

Guitar 2

DISTORTION

E|-------------------------------------------------------------|
B|-------------------------------------------------------------|
G|-------------------------------------------------------------|
D|--2-2--0-0--2-2--4-4--4-4--2-2--0-0--2-2--4-4--4-4--2-2--0---|
A|--2-2--0-0--2-2--4-4--4-4--2-2--0-0--2-2--4-4--4-4--2-2--0---|
D|--2-2--0-0--2-2--4-4--4-4--2-2--0-0--2-2--4-4--4-4--2-2--0---|


					(VERSE)


Guitar 1

CLEAN

E|---------------------------------------------------------|
B|--------5------------5-----------5-----------5-----------|
G|-----6-----6------6-----6-----6-----6-----6-----6--------| x4
D|--4------------------------7-----------6-----------------|
A|---------------5-----------------------------------------|
D|---------------------------------------------------------|


Guitar 2

CLEAN (piano)

E|--12---------------------12---------------------|
B|-------12---10---9-9---------12-12---14---9-9---|
G|------------------------------------------------|
D|------------------------------------------------|
A|------------------------------------------------|
D|------------------------------------------------|


DISTORTION

E|---------------------------------|
B|---------------------------------|
G|---------------------------------|
D|--0--0--0--0---------------------|
A|--0--0--0--0---------------------|
D|--0--0--0--0---------------------|

Sometimes, sometimes (we all wonder)


					(CHORUS)

DISORTION

Guitar 1


LIGHT DISTORTION

E|------------------------------|
B|--10----10-----9----9---------|
G|-----9-----9-----9----9-------|
D|------------------------------|
A|------------------------------|
D|------------------------------|


E|-------------------------------------------------|
B|---5-5/7---7/9---9/10---10/12\10-----------------|
G|-------------------------------------------------|   X2
D|-------------------------------------------------|
A|-------------------------------------------------|
D|-------------------------------------------------|

E|-------------------------------------------------|
B|---5-5/7---7/9---9/10\9\7\3----------------------|
G|-------------------------------------------------|
D|-------------------------------------------------|
A|-------------------------------------------------|
D|-------------------------------------------------|

DISTORTION

Guitar 2

E|------------------------------------------------------------|
B|------------------------------------------------------------|
G|------------------------------------------------------------|
D|--2-2--0-0--2-2--4-4--4-4--2-2--0-0--2-2--4-4--4-4--2-2-----|
A|--2-2--0-0--2-2--4-4--4-4--2-2--0-0--2-2--4-4--4-4--2-2-----|
D|--2-2--0-0--2-2--4-4--4-4--2-2--0-0--2-2--4-4--4-4--2-2-----|


E|----------------------------------|
B|----------------------------------|
G|----------------------------------|
D|--0-0-2-2-4-4-4-4-2-2-0-0-2-2-0---|
A|--0-0-2-2-4-4-4-4-2-2-0-0-2-2-0---|
D|--0-0-2-2-4-4-4-4-2-2-0-0-2-2-0---|

We are the real, the truth is unchanging ...


					(VERSE 2)


Guitar 1

CLEAN

E|---------------------------------------------------------|
B|--------5------------5-----------5-----------5-----------|
G|-----6-----6------6-----6-----6-----6-----6-----6--------| x4
D|--4------------------------7-----------6-----------------|
A|---------------5-----------------------------------------|
D|---------------------------------------------------------|


Guitar 2


E|-----------------------------------------------------|
B|-----------------------------------------------------|
G|-----------------------------------------------------|
D|---4-4-6-4-7-6-------------7--7--7--7--6--6-6-6-6----|
A|---------------5--5--5--5----------------------------|
D|-----------------------------------------------------|
   P.M		 P.M		P.M.	       P.M.


CLEAN

E|---------------------------------------------------------|
B|--------5------------5-----------5-----------5-----------|
G|-----6-----6------6-----6-----6-----6-----6-----6--------| x2
D|--4------------------------7-----------6-----------------|
A|---------------5-----------------------------------------|
D|---------------------------------------------------------|

DISTORTION

E|---------------------------------|
B|---------------------------------|
G|---------------------------------|
D|--0--0--0--0---------------------|
A|--0--0--0--0---------------------|
D|--0--0--0--0---------------------|

Tonight, tonight (I won't give up)...

					(CHORUS 2)

DISORTION

Guitar 1


LIGHT DISTORTION

E|------------------------------|
B|--10----10-----9----9---------|
G|-----9-----9-----9----9-------|
D|------------------------------|
A|------------------------------|
D|------------------------------|


E|-------------------------------------------------------------------------------|
B|-10(more time)-\-9(more time)-/-10(more time)-/-12(more time)-/-14-(fade)------|
G|-------------------------------------------------------------------------------|
D|-------------------------------------------------------------------------------|
A|-------------------------------------------------------------------------------|
D|-------------------------------------------------------------------------------|

We are the real, the truth is unchanging...


DISTORTION


Guitar 2

E|------------------------------------------------------------|
B|------------------------------------------------------------|
G|------------------------------------------------------------|
D|--2-2--0-0--2-2--4-4--4-4--2-2--0-0--2-2--4-4--4-4--2-2-----|
A|--2-2--0-0--2-2--4-4--4-4--2-2--0-0--2-2--4-4--4-4--2-2-----|
D|--2-2--0-0--2-2--4-4--4-4--2-2--0-0--2-2--4-4--4-4--2-2-----|


E|----------------------------------|
B|----------------------------------|
G|----------------------------------|
D|--0-0-2-2-4-4-4-4-2-2-0-0-2-2-0---|
A|--0-0-2-2-4-4-4-4-2-2-0-0-2-2-0---|
D|--0-0-2-2-4-4-4-4-2-2-0-0-2-2-0---|

We are the real, the truth is unchanging ...

					(SOLO)


Guitar 1


E|----------------------------------------------------------------|
B|----------------------------------------------------------------|
G|----------------------------------------------------------------|
D|----------------------------------------------------------------|
A|-7--9-9--7--9---4--5--4--4---7--9-9--7--9----11h12h11-14-12-11--|
D|----------------------------------------------------------------|

E|-------------------------------------------------------------------------|
B|-------------------------------------------------10-9--------10----------|
G|----------------------------------------------9--------9-----------------|
D|-----------------------------------------9--11------------11-------------|
A|-7--9-9--7--9---4--5--4--4---7--9--11--12--------------------------------|
D|-------------------------------------------------------------------------|


E|-------------------------------------------------------------------------|
B|--10---9----(x7)--12-10-9--10---9----(x7)--12-10-9-----------------------| (fast)
G|-----9---9--------------------9---9--------------------------------------|
D|-------------------------------------------------------------------------|
A|-------------------------------------------------------------------------|
D|-------------------------------------------------------------------------|

Guitar 2


E|------------------------------|
B|------------------------------|
G|------------------------------|
D|--0-0--4-4--2-2---------------|   (more time)
A|--0-0--4-4--2-2---------------|
D|--0-0--4-4--2-2---------------|


					(PIANO SOLO)


E|--17-------14---------------------------17-------14--------------------------16-17----|
B|------17-------14-14--17--12--14-------------17-------14-14--17--12--14---------------|
G|---------------------------------13-13----------------------------------13-13---------|
D|--------------------------------------------------------------------------------------|
A|--------------------------------------------------------------------------------------|
D|--------------------------------------------------------------------------------------|


					(CHORUS 3)


Guitar 2


E|----------------------------------|
B|----------------------------------|
G|----------------------------------|
D|--0-0-2-2-4-4-4-4-2-2-0-0-2-2-4---| (with step effect)
A|--0-0-2-2-4-4-4-4-2-2-0-0-2-2-4---|
D|--0-0-2-2-4-4-4-4-2-2-0-0-2-2-4---|

(We are the real, the truth is unchanging...Whoooooaaa...)

Guitar 1


E|-----------------|
B|-----------------|
G|--9--11--11------| repeat more time
D|-----------------|
A|-----------------|
D|-----------------|


(Whoooooaaa This is You, this is me This is who we're meant to be ...)


E|--------12--------12--------12------|
B|---10--------10--------10-----------|
G|------------------------------------|
D|------------------------------------|
A|------------------------------------|
D|------------------------------------|


(We are the real, the truth is unchanging)


E|--------12--------12--------12-------------------------------|
B|---10--------10--------10---------10---12---10---9-----------|
G|-------------------------------------------------------------|
D|-------------------------------------------------------------|
A|-------------------------------------------------------------|
D|-------------------------------------------------------------|


(This is the call to hearts that are feeling)

E|--------12--------12--------12------------|
B|---10--------10--------10-------12-12--10-|
G|------------------------------------------|
D|------------------------------------------|
A|------------------------------------------|
D|------------------------------------------|

(Whoooooaaa)


Guitar 2


E|--------------------------------------|
B|--------------------------------------|
G|--------------------------------------|
D|-4-4|-0-0-2-2-4-4-4-4-2-2-0-0-2-2-0---|
A|-4-4|-0-0-2-2-4-4-4-4-2-2-0-0-2-2-0---|
D|-4-4|-0-0-2-2-4-4-4-4-2-2-0-0-2-2-0---|

  P.M.


if there are any comments or errors
e-mail me at antonioliviero84@virgilio.it

Lyrics


Here I am
Tonight
I can't stand
To Fight

This feeling of dispair
I hide
I wonder are You there?
Sometimes, sometimes (we all wonder)

Chorus:
Whoooooaaa
This is You, this is me
Whoooooaaa
This is who we're meant to be
We are the real, the truth is unchanging
This is the call to hearts that are fadin'
Whoooooaaa

So it is
Sometimes
That I feel
This life

Is far beyond repair
But I
I know that You are there
Tonight, tonight (I won't give up)

Chorus

Keep on
Breathing
Don't you let this take you down
Don't stop
Believing

Chorus x2    

Added On December 16th, 2013

SHARE

Comments

blog comments powered by Disqus

ADVERTISEMENT