New Found Glory Tabs

Crazy For You

1 versions

TAB

            Artist:  New Found Glory
Song:  Crazy For You
Album:  From The Screen To Your Stereo Part II
Date Posted: October 28, 2007
Tabbed: DesuTchIanX

I don't know if my tab is correct and I don't know if this is accurate.
Just try it if not. I'm very sorry... PEACE!

Intro
Lead Guitar (Distortion)
e|------------------------------------------|
B|--------------7--9--9h11---12--11--9--7---|
G|------------------------------------------|
D|---7--------------------------------------|
A|---7--------------------------------------|
E|---5--------------------------------------|

Rhythm Guitar (Palm Mute) x2
e|-----------------------------------------------|
B|-----------------------------------------------|
G|-------------------5-5-------------------5-5---|
D|---5-5--7-7---5-5--5-5---5-5--7-7---7-5--5-5---|
A|---5-5--7-7---5-5--3-3---5-5--7-7---7-5--3-3---|
E|---3-3--5-5---3-3--------3-3--5-5---3-3--------|

Verse 1:
Lead Guitar (Distortion)
e|-----------------------------------------------------|
B|-----------------------------------------------------|
G|-----------------------------------------------7-6---|
D|---7-------------------------------------------7-6---|
A|---7-------------------------------------------5-4---|
E|---5-------------------------------------------------|

e|-----------------------------------------------------|
B|-----------------------------------------------------|
G|-------9-----7------9-----7------9-----7------9------|
D|---7---9--4--7--7---9--4--7--7---9--4--7--7---9--4---|
A|---7---7--4--5--7---7--4--5--7---7--4--5--7---7--4---|
E|---5------2-----5------2-----5------2-----5------2---|

e|-----------------------------------|
B|-----------------------------------|
G|--------------------7-7-7-7--7-7---|
D|---7-7-7-7-7-7-7-7--7-7-7-7--7-7---|
A|---7-7-7-7-7-7-7-7--5-5-5-5--5-5---|
E|---5-5-5-5-5-5-5-5-----------------|

Rhythm Guitar (Palm Mute) x2
e|------------------------------------------------------------------------|
B|------------------------------------------------------------------------|
G|--------------------9-9-9-9-9-9-9-9-------------------7-7-7-7-7-7-7-7---|
D|---7-7-7-7-7-7-7-7--9-9-9-9-9-9-9-9--4-4-4-4-4-4-4-4--7-7-7-7-7-7-7-7---|
A|---7-7-7-7-7-7-7-7--7-7-7-7-7-7-7-7--4-4-4-4-4-4-4-4--5-5-5-5-5-5-5-5---|
E|---5-5-5-5-5-5-5-5-------------------2-2-2-2-2-2-2-2--------------------|

Chorus:
Both Guitar (Distortion)
e|------------------------------------------------------------------------|
B|------------------------------------------------------------------------|
G|--------------------9-9-9-9-9-9-9-9-------------------7-7-7-7-7-7-7-7---|
D|---7-7-7-7-7-7-7-7--9-9-9-9-9-9-9-9--4-4-4-4-4-4-4-4--7-7-7-7-7-7-7-7---|
A|---7-7-7-7-7-7-7-7--7-7-7-7-7-7-7-7--4-4-4-4-4-4-4-4--5-5-5-5-5-5-5-5---|
E|---5-5-5-5-5-5-5-5-------------------2-2-2-2-2-2-2-2--------------------|

e|--------------------------------------------------------------|
B|--------------------------------------------------------------|
G|--------------------9-9-9-9-9-9-9-9-------------------7-------|
D|---7-7-7-7-7-7-7-7--9-9-9-9-9-9-9-9--4-4-4-4-4-4-4-4--7---7---|
A|---7-7-7-7-7-7-7-7--7-7-7-7-7-7-7-7--4-4-4-4-4-4-4-4--5---7---|
E|---5-5-5-5-5-5-5-5-------------------2-2-2-2-2-2-2-2------5---|

Lead Guitar (Distortion)
e|-------------------------------|
B|---7--9--9h11---12--11--9--7---|
G|-------------------------------|
D|-------------------------------|
A|-------------------------------|
E|-------------------------------|

Rhythm Guitar (Distortion)
e|------------------------------------------------------------------------|
B|------------------------------------------------------------------------|
G|--------------------9-9-9-9-9-9-9-9-------------------7-7-7-7-7-7-7-7---|
D|---7-7-7-7-7-7-7-7--9-9-9-9-9-9-9-9--4-4-4-4-4-4-4-4--7-7-7-7-7-7-7-7---|
A|---7-7-7-7-7-7-7-7--7-7-7-7-7-7-7-7--4-4-4-4-4-4-4-4--5-5-5-5-5-5-5-5---|
E|---5-5-5-5-5-5-5-5-------------------2-2-2-2-2-2-2-2--------------------|

e|--------------------------------------------------------------|
B|--------------------------------------------------------------|
G|--------------------9-9-9-9-9-9-9-9-------------------7-------|
D|---7-7-7-7-7-7-7-7--9-9-9-9-9-9-9-9--4-4-4-4-4-4-4-4--7---7---|
A|---7-7-7-7-7-7-7-7--7-7-7-7-7-7-7-7--4-4-4-4-4-4-4-4--5---7---|
E|---5-5-5-5-5-5-5-5-------------------2-2-2-2-2-2-2-2------5---|

Verse 2:
Lead Guitar 
e|-------------------------------------------------------|
B|-------------------------------------------------------|
G|-------9-----7------9-----7------9-----7---------7-6---|
D|---7---9--4--7--7---9--4--7--7---9--4--7--7------7-6---|
A|---7---7--4--5--7---7--4--5--7---7--4--5--7------5-4---|
E|---5------2-----5------2-----5------2-----5------------|

Rhythm Guitar
e|------------------------------------------------------------------------|
B|------------------------------------------------------------------------|
G|--------------------9-9-9-9-9-9-9-9-------------------7-7-7-7-7-7-7-7---|
D|---7-7-7-7-7-7-7-7--9-9-9-9-9-9-9-9--4-4-4-4-4-4-4-4--7-7-7-7-7-7-7-7---|
A|---7-7-7-7-7-7-7-7--7-7-7-7-7-7-7-7--4-4-4-4-4-4-4-4--5-5-5-5-5-5-5-5---|
E|---5-5-5-5-5-5-5-5-------------------2-2-2-2-2-2-2-2--------------------|

Both Guitar
e|------------------------------------------------------------------------|
B|------------------------------------------------------------------------|
G|--------------------9-9-9-9-9-9-9-9-------------------7-7-7-7-7-7-7-7---|
D|---7-7-7-7-7-7-7-7--9-9-9-9-9-9-9-9--4-4-4-4-4-4-4-4--7-7-7-7-7-7-7-7---|
A|---7-7-7-7-7-7-7-7--7-7-7-7-7-7-7-7--4-4-4-4-4-4-4-4--5-5-5-5-5-5-5-5---|
E|---5-5-5-5-5-5-5-5-------------------2-2-2-2-2-2-2-2--------------------|

Chorus:
Both Guitar (Distortion) x2
e|------------------------------------------------------------------------|
B|------------------------------------------------------------------------|
G|--------------------9-9-9-9-9-9-9-9-------------------7-7-7-7-7-7-7-7---|
D|---7-7-7-7-7-7-7-7--9-9-9-9-9-9-9-9--4-4-4-4-4-4-4-4--7-7-7-7-7-7-7-7---|
A|---7-7-7-7-7-7-7-7--7-7-7-7-7-7-7-7--4-4-4-4-4-4-4-4--5-5-5-5-5-5-5-5---|
E|---5-5-5-5-5-5-5-5-------------------2-2-2-2-2-2-2-2--------------------|
                                                        |--Palm Mute--|
e|------------------------------------------------------------------------|
B|------------------------------------------------------------------------|
G|--------------------9-9-9-9-9-9-9-9-------------------7-7-7-7-7-7-7-7---|
D|---7-7-7-7-7-7-7-7--9-9-9-9-9-9-9-9--4-4-4-4-4-4-4-4--7-7-7-7-7-7-7-7---|
A|---7-7-7-7-7-7-7-7--7-7-7-7-7-7-7-7--4-4-4-4-4-4-4-4--5-5-5-5-5-5-5-5---|
E|---5-5-5-5-5-5-5-5-------------------2-2-2-2-2-2-2-2--------------------|

Lead Guitar (Distortion)
e|------------------------------------------|
B|--------------7--9--9h11---12--11--9--7---|
G|---7--------------------------------------|
D|---7---7----------------------------------|
A|---5---7----------------------------------|
E|-------5----------------------------------|

Outro 1
Lead Guitar (Distortion)|-I don't know here-|
e|------------------------------------------|
B|------------------------------------------|
G|------------------------------------------|
D|------------------------------------------|
A|------------------------------------------|
E|------------------------------------------|

Rhythm Guitar (Palm Mute)
e|------------------------------------------------------------------------|
B|------------------------------------------------------------------------|
G|--------------------9-9-9-9-9-9-9-9-------------------7-7-7-7-7-7-7-7---|
D|---7-7-7-7-7-7-7-7--9-9-9-9-9-9-9-9--4-4-4-4-4-4-4-4--7-7-7-7-7-7-7-7---|
A|---7-7-7-7-7-7-7-7--7-7-7-7-7-7-7-7--4-4-4-4-4-4-4-4--5-5-5-5-5-5-5-5---|
E|---5-5-5-5-5-5-5-5-------------------2-2-2-2-2-2-2-2--------------------|

Outro 2
Lead Guitar x4
e|--------------------------------------------|
B|---9-9--9-9--9-9--9-9--9-9--9-9--9-9--9-9---|
G|--------------------------------------------|
D|--------------------------------------------|
A|--------------------------------------------|
E|--------------------------------------------|

Rhythm Guitar (Palm Mute) x7
e|--------------------------------------------|
B|--------------------------------------------|
G|------9p-9p-9p-------7p-7p------------------|
D|---7--9p-9p-9p-4p-4p-7p-7p-7-7-7-7-7-7-7----|
A|---7--7p-7p-7p-4p-4p-5p-5p-7-7-7-7-7-7-7----|
E|---5-----------2p-2p-------5-5-5-5-5-5-5----|

Both Guitar
e|-------|
B|-------|
G|-------|
D|---7~--|
A|---7~--|
E|---5~--|

Legends:
p - Palm Mute

Ok done!
Please don't forget to rate it...
Please leave a comment if there is a mistake...
my friendster url: http://profiles.friendster.com/desutchianx    

Added On December 16th, 2013

SHARE

Comments

blog comments powered by Disqus

ADVERTISEMENT