New Found Glory Tabs

Heaven Isnt Too Far Away

1 versions

TAB

            Song: Heaven or others call it Heaven isn't too far away
Artist: New Found Glory
Tabbed by: Nikko Gonzales
e-mail: green.is_myfav@yahoo.com

Legend
~-let ring
p-pull
h-hammer
^ or b - bend

Note*
if i wrote like this d|-5 i doesm't mean to strum the chord once,
                     a|-5 just listen to the timming and if i wrote like 
                     E|-3 this   d|-5-5 it means to strum the chord
                                 a|-5-5 twice as the rhythmic pattern
                                 E|-3-3 i hope you got that

Verse:
e|-------------------------------------|this are the chords, repeat this as
b|-------------------------------------|needed, just listen for the
g|-----4--3--7-------------------------|timing
d|--5--4--3--7-------------------------|
a|--5--2--5--5-------------------------|
E|--3----------------------------------|


Pre-Chorus
e|-------------------------------------|
b|-------------------------------------|
g|-----7-------------------------------|repeat as neccessary
d|--3--7--3-3--------------------------|then......
a|--3--5--3-3--------------------------|
E|--5-----5-5--------------------------|

e|-------------------------------------|
b|-------------------------------------|
g|--5--7--9--7--5~---------------------|x1
d|--5--7--9--7--5~---------------------|
a|--3--5--7--5--3~---------------------|
E|-------------------------------------|

Chorus
e|-------------------------------------|
b|-------------------------------------|
g|------7--3---------------------------|repeat as neccessary
d|---3--7--3---------------------------|
a|---3--5--5---------------------------|
E|---5---------------------------------|

Solo
i just found it on other site, its not that accurate but it sound
great
E----------------------------------------------------------------------|
B|-14-14-14v-----------------------------------------------------14h17-|
G|-----------16p14-----------------------------------------14h16-------|
D|-----------------16p14------------------------------14h16------------|
A|-----------------------16p15p14----------------14h16-----------------|
E|--------------------------------17-14-12-14-17-----------------------|

E|-21-21-21v-16--------------------------------------------------------|
B|--------------17-14-15-----------------------------------------------|
G|-----------------------14--------------------------------------------|
D|-------------------------14------------------------------------------|
A|----------------------------17-16-12h14p12-12h14p12v----------14h16--|
E|-----------------------------------------------------12-14-17--------|

E|-------------------14v-14------------------------|
B|------------14h17v--------17-14------------------|
G|------14h16--------------------14----------------|
D|-14h16---------------------------14--------------|
A|-----------------------------------17-16-12------|
E|-------------------------------------------12-10-|

Last Chorus
e|-------------------------------------|
b|-------------------------------------|
g|------12--9--------------------------|repeat as neccessary
d|---9--12--9--------------------------|
a|---9--10--7--------------------------|
E|---7---------------------------------|    

Added On December 16th, 2013

SHARE

Comments

blog comments powered by Disqus

ADVERTISEMENT