New Found Glory Tabs

Lovefool

1 versions

TAB

            Tuning- GtrI & II( e b g d A E }

Intro-

|-9--9----9--9------9---9------------------------------|
|-10-10---10-10-----10--10-----------------------------|
|-11-11---11-11-----11--11-----------------------------|
|------------------------------------------------------|
|------------------------------------------------------|
|------------------------------------------------------|


Verse

GtrI
|--9--9---|--7-7--|--7--7--|--5--5----|
|--10-10--|--7-7--|--9--9--|--5--5----|
|--11-11--|--7-7--|--9--9--|--6--6----|
|--x--x---|--x-x--|--x--x--|--x--x----|4x
|---------|-------|--------|----------|
|---------|-------|--------|----------|

Gtr II
|------------------------------------------------------|
|------------------------------------------------------|
|------------------------------------------------------|
|--------77-999999--------66-777777--------------------|2x
|-999999-----------777777------------------------------|
|------------------------------------------------------|



Pre Chorus-

|------------------------------------------------------|
|------------------------------------------------------|
|------------------------------------------------------|
|-77-7--7-8--8-9--9-10--10-111111111111111111----------|
|-77-7--7-8--8-9--9-10--10-111111111111111111----------|
|-55-5--5-6--6-7--7-8---8--9-9-9-9-9-9-9-9-9-----------|


ChorusI-
Gtr I
|-----------------|  ----------------------------------------------------|
|-----------------|  ----------------------------------------------------|
|----44-----6-66--|  --------------------------6~------------------------|
|-44-44-66--6-66--|4x-4~----------6------------6~-------------4~-4444444-|
|-44-22-66--4-44--|  -4~----------6~-----------4~-------------4~-4444444-|
|-22----44--------|  -2~----------4~--------------------------2~-2222222-|

Gtr II
|-----------------|  ----------------------------------------------------|
|-----------------|  ----------------------------------------------------|
|-----------------|  ----------------------------------------------------|
|-same as above---|  -11-8~-11-8~-11-8~-11-8------9-----9---9-8--9-8-----|
|-----------------|  ------------------------11~-----11---11--------9~---|
|-----------------|  ----------------------------------------------------|


Gtr I&II
|----------------|  ------------|
|----------------|  ------------|
|----4~----6-66--|  -----4~--6~-|
|-44-4~-66-6-66--|2x-4~--4~--6~-|
|-44-2~-66-4-44--|  -4~--2~--4~-|
|-22----44-------|  -2~---------|

Repeat Intro- Verse! w/o Gtr II ! w/ Gtr II- Chorus-



Outro-
Gtr I&II
|----------------|  ------------|
|----------------|  ------------|
|----4~----6-66~-|  -----4~--6~-|
|-44-4~-66-6-66~-|5x-4~--4~--6~-|
|-44-2~-66-4-44~-|  -4~--2~--4~-|
|-22----44-------|  -2~---------|

End W/

|------------------------------------------------------|
|------------------------------------------------------|
|------------------------------------------------------|
|-4-4---4-4--4-4~--------------------------------------|
|-4-4---4-4--4-4~--------------------------------------|
|-2-2---2-2--2-2~--------------------------------------|    

Added On December 16th, 2013

SHARE

Comments

blog comments powered by Disqus

ADVERTISEMENT