Newsted Tabs

Heroic Dose

1 versions

TAB

            ---------------------------------­---------------|
---------------------------------­---------------|
---7/9-------9----------------------­------------| Play this 3 times
---7/9-------9---------------------­7------------|
---5/7-------7----------------5/7---­-8--7\5-----|
--------0-0----0-0-0-0-0-----------­-------------|


---------------------------------------------------|
-------------------------------­---------------------|
---7/9-----------9------------------­--7-------------|
---7/9-----------9--------------------7------------|
---5/7-----------7--------------------5------------|
------------0-0------0-0-0-0-0-0-0-0---------------|


------------------------------­------------------|
------------------------------­------------------|
---7/9-------9----------------------­------------| 3 times again
---7/9-------9----------------------­7-----------|
---5/7-------7----------------5/7---­-8--7\5-----|
--------0-0----0-0-0-0-0-----------­-------------|



----------------------------------------­------------|
---------------------------------------------------|
---------------------------------------------------|
----10--------------------------9--­-----------------|
----10--------------------------9------------------|
-----8-------10/12\10--8-----7------8-10-­8-7--------|


-----------------------------------­-----------------|
-----------------------------------­-----------------|
---9----------9------------------------------------|
---9----------9------------------------------------| 3 times
---7----------7---------------5-7-7/8-7-­5-----------|
------0-0-0----0-0-0-0-0---------------------------|


-------------------------------------------------|
----------------------------­----------------------|
---9----------9--------------­---------------------|
---9----------9-------------------------­8---8-----|
---7----------7-------------------------­8---8-----|
------0-0-0----0-0-0-0-0-0-0-0---6---6--­----------|

Bridge Section :


----------------------------­----------------------|
-------------------------------------------------|
-------------------------------------4--­------7---|
--4--------4------4------4--------4-----­---7------| 3 times
--4--------4------4------4--------2-----­---5------|
--2--2-2--2--2--2--2--2--2--------------­----------|


----------------------------------------­--------|
----------------------------------------­--------|
---7-------7----7----7--------5-------4­---------|
---7-------7----7----7--------5-------4­---------|
---5-5-5--5-5-5-5-5-5-----3-------2----­---------|
----------------------------------------­--------|


there's some mistakes for sure but that was the best I could make ...    

Added On December 16th, 2013

SHARE

Comments

blog comments powered by Disqus

ADVERTISEMENT