Newton Faulkner Tabs

Cheltenham

1 versions

TAB

            This is the tab for the interlude of Cheltenham, it is only instrumental and no lyrics 
are in the song.

Tuning:
D
A
D
G
A
D


D |-------------------------------------------------------|
A |-10---10-9---9-7---7-5---5----3-3---3-3---3-3---3-3/10-|
D |---9p0----7p0---5p0---4p0------0-----0-----0-----0-----|
G |--------0-----0-----0------2p0---2p0---2p0---2p0-------|
A |--------------------------0----------------------------|
D |-------------------------------------------------------|

D |-------------------------------------------------------|
A |-10---10-9---9-7---7-5---5----3-3---3-3---3-3---3-3----|
D |---9p0----7p0---5p0---4p0------0-----0-----0-----0-----|
G |--------0-----0-----0------2p0---2p0---2p0---2p0---2p0-|
A |--------------------------0----------------------------|
D |-------------------------------------------------------|

D |---------------------------------------------3---3-3---3-3---3-3|
A |-2-2---2-2---2-2---2-2---3-3---3-3---3-3---3--------------------|
D |--0-----0-----0-----0-------------------------------------------|
G |----2p0---2p0---2p0---2p0---2p0---2p0---2p0---2p0---2p0---2p0---|
A |--------------------------3-----3-----3-----3-----3-----3-----3-|
D |----------------------------------------------------------------|

D |---3-0-5------5--------------------------------------|Continue to fade
A |-------------------------3---3-----------------------|
D |--------2p0-----------------------0-2h4--------------|
G |2p0--------2p0--2p0---2p0-2p0-0--0------2p0-0-2h4----|
A |----0--------------2p0-------------------------------|
D |---------------0---------------------------------2p0-|    

Added On December 16th, 2013

SHARE

Comments

blog comments powered by Disqus

ADVERTISEMENT